Song name
# A B C D E F G H I J K L M N O P Q R S T U V W X Y Z

2cents - Get The Door tab

this is get the door by 2cents..I learnt it by ear so if its not correct tell me..it 
pretty dead on...about 80% correct
its in drop-D also so yea


intro
E|-----1----------------1-------------------------|
B|-----1----------------1-------------------------|
G|------------------------------------------------|
D|--0----0-3-6-5-3---0----0-3-6-5---0-3-5-3-6-5-3-|
A|--0----0-3-6-5-3---0----0-3-6-5---0-3-5-3-6-5-3-|
D|--0----0-3-6-5-3---0----0-3-6-5---0-3-5-3-6-5-3-|


chorus
E|-------------------------------1-----1-----1-----1----------|
B|-------------------------------1-----1-----1-----1----------|
G|------------------------------------------------------------|
D|00-0-000-00-0--00-3-00-5---000---000---000---000------------|
A|00-0-000-00-0--00-3-00-5---000---000---000---000------------|
D|00-0-000-00-0--00-3-00-5---000---000---000---000------------|


then its back to the intro..then back to the chorus

and this is the lil solo played over the chorus the second time around

E|-------------------------------------------------------|
B|-------------------------------------------------------|
G|--------5-7-9-10-12~--9h10-10-9h10-10-9h10-10-9h10-10--|
D|-/7~-7\------------------------------------------------|
A|-------------------------------------------------------|
D|-------------------------------------------------------|

E|------------------------------------------------------------------------|
B|------------------------------------------------------------------------|
G|-7h9-9-7h9-9-7h9-9-7h9-9-5h7-7-5h7-7-5h7-7-5h7-7----5h7---5h7---5h7/22\-|
D|-------------------------------------------------5h7---5h7---5h7--------|
A|------------------------------------------------------------------------|
D|------------------------------------------------------------------------|

then back to the chorus then the intro then this

breakdown
E|------------------------------------------------|
B|------------------------------------------------|
G|------------------------------------------------|
D|0(let ring)-0-6-5-3-5-3-0-3-0-6-5-3-5-3-6-5---0-|
A|0(let ring)-0-6-5-3-5-3-0-3-0-6-5-3-5-3-6-5---0-|
D|0(let ring)-0-6-5-3-5-3-0-3-0-6-5-3-5-3-6-5---0-|

              (^ play that 4 times in a row.^)


then its back to the intro and your done!!!

well rate this and tell me how it is..2CENTS ROCK!!!!!!
Tap to rate this tab
# A B C D E F G H I J K L M N O P Q R S T U V W X Y Z