Song name
# A B C D E F G H I J K L M N O P Q R S T U V W X Y Z

2en1 - I Dont Care tab

-----------------------------------------------------------------------------
			     I DON'T CARE - 2EN1
-----------------------------------------------------------------------------

Tabbed by: Oscar Miralles

Tuning: EADGBe 


             E                                  G#m
e|-------------2-0--------------------------------------------------------|
B|-----------0-------------------------------------4-5--------------------|
G|---------1-------------------------------------4------------------------|
D|---------------------------------------------6--------------------------|
A|------------------------------------------------------------------------|
E|-------0-----------------------------------4----------------------------|


             C#m                                 A
e|---------------------------------------------------4-2------------------|
B|-------------4-5---------------------------------2----------------------|
G|-----------6-----------------------------------2------------------------|
D|---------6-----------------------------------2--------------------------|
A|-------4-----------------------------------0----------------------------|
E|------------------------------------------------------------------------|


The whole song is just E - G#m - C#m - A   :) Enjoy!!! Eh eh eh eh eh :)


http://www.ilike.com/artist/2EN1
Tap to rate this tab
# A B C D E F G H I J K L M N O P Q R S T U V W X Y Z