Guitaretab - guitar tabs
Song name
# A B C D E F G H I J K L M N O P Q R S T U V W X Y Z

2ne1 - Lonely tab

hello y'all!!
2ne1 - Lonely tabs here.. :)

drop d then capo on 2nd fret...
(i'm stupid)





Verse I
           
e:--------------------|
B:-3-----3---3------3-|
G:-----2--2------2----|
D:----0----0----0----0|
A:--------------------|
E:-0----0----0----0---|

           
e:-0------0--0------0-|
B:--------------------|
G:-----2---2-----2----|
D:----0-----0---0----0|
A:--------------------|
E:-4----4----4----4---|

e:---------------5----|
B:-3-----3---2(3)---3-|
G:-----2---2----------|
D:----0-----0---------|
A:-2----2----2----2---|
E:--------------------|

e:--------------------|
B:-2-----2---2-3--5---|
G:----2---2-----------|
D:---0-----0------2---|
A:-0----0----0--------|
E:--------------------|


e:-0-----0---2-----0--|
B:--------------------|
G:----2---2------2--2-|
D:---0-----0----0----0|
A:--------------------|
E:-0----0----0----0---|

e:-0-----0---2-----0--|
B:--------------------|
G:----2---2------2--2-|
D:---0-----0----0----0|
A:--------------------|
E:-4----4----4----4---|

e:---------------5----|
B:-3-----3---2(3)---3-|
G:-----2---2----------|
D:----0-----0---------|
A:-2----2----2----2---|
E:--------------------|

e:--------------------|
B:-2-----2---2-3--5---|
G:----2---2-----------|
D:---0-----0------2---|
A:-0----0----0--------|
E:--------------------|

e:-0-----0---2-----0--|
B:--------------------|
G:----2---2------2--2-|
D:---0-----0----0----0|
A:--------------------|
E:-0----0----0----0---|

e:-0-----0---2-----0--|
B:--------------------|
G:----2---2------2--2-|
D:---0-----0----0----0|
A:--------------------|
E:-4----4----4----4---|

e:---------------5----|
B:-3-----3---2(3)---3-|
G:-----2---2----------|
D:----0-----0---------|
A:-2----2----2----2---|
E:--------------------|

e:--------------------|
B:-2-----2---2-3--5---|
G:----2---2-----------|
D:---0-----0------2---|
A:-0----0----0--------|
E:--------------------|

e:-0-----0---2-----0--|
B:--------------------|
G:----2---2------2--2-|
D:---0-----0----0----0|
A:--------------------|
E:-0----0----0----0---|

e:-0-----0---2-----0--|
B:--------------------|
G:----2---2------2--2-|
D:---0-----0----0----0|
A:--------------------|
E:-4----4----4----4---|

e:---------------5----|
B:-3-----3---2(3)---3-|
G:-----2---2----------|
D:----0-----0---------|
A:-2----2----2----2---|
E:--------------------|

   G     A
e:-3------------------|
B:-3-----2------------|
G:-------2------------|
D:-------2------------|
A:-2------------------|
E:-x------------------|


Chorus:

-D-A-Bm-G-A
-D-A-Bm-G...

e:-----12/10/12-------|
B:-----12/10/12-------|
G:--------------10/2--|
D:--------------------|
A:--------------------|
E:--------------------|

-D-A-Bm-G...

[ Tab from: http://www.guitaretab.com/numeric/2ne1/283040.html ]
e:-----------12/11----|
B:--------10----------|
G:--------------------|
D:--------------------|
A:--------------------|
E:--------------------|

-D-A-Bm-G-A


Verse II

e:--------------------|
B:-3-----3---3------3-|
G:-----2--2------2----|
D:----0----0----0----0|
A:--------------------|
E:-0----0----0----0---|

           
e:-0------0--0------0-|
B:--------------------|
G:-----2---2-----2----|
D:----0-----0---0----0|
A:--------------------|
E:-4----4----4----4---|

e:---------------5----|
B:-3-----3---2(3)---3-|
G:-----2---2----------|
D:----0-----0---------|
A:-2----2----2----2---|
E:--------------------|

e:--------------------|
B:-2-----2---2-3--5---|
G:----2---2-----------|
D:---0-----0------2---|
A:-0----0----0--------|
E:--------------------|

e:-0-----0---2-----0--|
B:--------------------|
G:----2---2------2--2-|
D:---0-----0----0----0|
A:--------------------|
E:-0----0----0----0---|

e:-0-----0---2-----0--|
B:--------------------|
G:----2---2------2--2-|
D:---0-----0----0----0|
A:--------------------|
E:-4----4----4----4---|

e:---------------5----|
B:-3-----3---2(3)---3-|
G:-----2---2----------|
D:----0-----0---------|
A:-2----2----2----2---|
E:--------------------|

e:--------------------|
B:-2-----2---2-3--5---|
G:----2---2-----------|
D:---0-----0------2---|
A:-0----0----0--------|
E:--------------------|

e:-0-----0---2-----0--|
B:--------------------|
G:----2---2------2--2-|
D:---0-----0----0----0|
A:--------------------|
E:-0----0----0----0---|

e:-0-----0---2-----0--|
B:--------------------|
G:----2---2------2--2-|
D:---0-----0----0----0|
A:--------------------|
E:-4----4----4----4---|

e:---------------5----|
B:-3-----3---2(3)---3-|
G:-----2---2----------|
D:----0-----0---------|
A:-2----2----2----2---|
E:--------------------|

e:--------------------|
B:-2-----2---2-3--5---|
G:----2---2-----------|
D:---0-----0------2---|
A:-0----0----0--------|
E:--------------------|

e:-0-----0---2-----0--|
B:--------------------|
G:----2---2------2--2-|
D:---0-----0----0----0|
A:--------------------|
E:-0----0----0----0---|

e:-0-----0---2-----0--|
B:--------------------|
G:----2---2------2--2-|
D:---0-----0----0----0|
A:--------------------|
E:-4----4----4----4---|

e:---------------5----|
B:-3-----3---2(3)---3-|
G:-----2---2----------|
D:----0-----0---------|
A:-2----2----2----2---|
E:--------------------|

   G     A
e:-3------------------|
B:-3-----2------------|
G:-------2------------|
D:-------2------------|
A:-2------------------|
E:-x------------------|

Chorus:

-D-A-Bm-G-A
-D-A-Bm-G...

e:-----12/10/12-------|
B:-----12/10/12-------|
G:--------------10/2--|
D:--------------------|
A:--------------------|
E:--------------------|

-D-A-Bm-G...


e:-----------12/11----|
B:--------10----------|
G:--------------------|
D:--------------------|
A:--------------------|
E:--------------------|

-D-A-Bm-G-A
(repeat)
Related for Lonely tab
Lonely chords by 2ne1