Song name
# A B C D E F G H I J K L M N O P Q R S T U V W X Y Z

2ne1 - Lonely tab

Here is my first tab!! i hope i did well.

This is in Standard Tunning...eBGDAE
Keep in mind that all your bass notes in the plucking section should be on the down 
beat. In other words your bass note should keep the tempo.

For those who know and understand Rhythm, most of the time your plucking pattern is..

1 &a 2e&a 3 &a 4e&a

Here is my Video Tutorial...http://www.youtube.com/watch?v=u8_rX1sdE18





E
5--------5-------------|
-----------------------|
-----4---------6-------|      x2
---6-------4-----------|
-----------------------|
0------0---------------|




G#maj
-----------------------|
7---------7------------|
-----5---------5-------|     x2
---4---------4---------|
-----------------------|
4------4---------------|




C#min7
(something close to this)
-----------------------------7---|
5-----------5-----4h5----------5-|
------4--------------------------|
----6----------------------------|
4--------4----4----------4-------|
---------------------------------|




BMaj

------------------------------|
4---------4-----4---5---7-----|
------4-----------------------|
----4-------------------------|
2-------2-------2---4---6-----|
------------------------------|




G#7/E
--------------------4-----------------|
7----------7-------------------7------|
------5---------5--------5----------5-|
----4---------4--------4----------4---|
--------------------------------------|
0--------0----------0-------0---------|



G#7
--------------------4------------------|
7----------7-------------------7-------|
------5---------5--------5----------5--|
----4---------4--------4----------4----|
---------------------------------------|
4--------4----------4-------4----------|
Tap to rate this tab
# A B C D E F G H I J K L M N O P Q R S T U V W X Y Z