Song name
# A B C D E F G H I J K L M N O P Q R S T U V W X Y Z

2ne1 - I Love You tab

Highlighted       Show chord diagrams
    Cm                                         D#
E-------------------------------------------------------------------------|
B-----4-4---4----4-4---4----4-4---4----4-4---4-----8-8---8----8-8---8-----|
G-----5-5---5----5-5---5----5-5---5----5-5---5-----8-8---8----8-8---8-----|
D-----5-5---5----5-5---5----5-5---5----5-5---5-----8-8---8----8-8---8-----|
A---3-----3----3-----3----3-----3----3-----3---5/6-----6----6-----6-------|
E-------------------------------------------------------------------------|
   D#                     Cm
E-------------------------------------------------------------------------|
B-----8-8---8----8-8---8-----4-4---4--------------------------------------|
G-----8-8---8----8-8---8-----5-5---5--------------------------------------|
D-----8-8---8----8-8---8-----5-5---5--------------------------------------|
A---6-----6----6-----6---5/3-----3----------------------------------------|
E-------------------------------------------------------------------------|





Cm 
Geudae naegeman jalhaejwoyo
Hangsang naegeman useojwoyo

D#
I said ooh jiltuhage haji mayo
Ooh jipchakhage haji mayo

Cm
Ajik nan sarangi duryeowoyo
Ireon naege mideumeul jwobwayo

D#
I said ooh jiltuhage haji mayo
                        Cm
Ooh jipchakhage haji mayo

Cm
I love you
D#
I love you

Cm
Haru jongil geudae moseup jakku tteoolla
Onjongil ulliji annneun jeonhwagiman tto chyeodabwa

D#
Wae ireon nae mameul ajik molla
Nan neoui maeumeul ajik jal molla

Cm
Neoui saenggage bamen jamdo mot iruda
Dalbiche geudaereul tteoollimyeo nae mam gobaekhaebwa

D#
Wae ireon nae mameul ajik molla
Nan neoui maeumeul ajik jal molla

Look at me now

G#              Cm
Nae mameul barabwayo

A#
Ireoke aetaneunde

G#              Cm
Jigeum nal jabajwoyo

A#              A#
Neutgi jeone eh eheheh

Cm
I love you

D#
I love you

Cm
Meomchuji mayo sarang norae
Meotjin neol wihae bulleojulge everyday

D#
I say yeah yeahyeahyeahyeahyeah
I say yeah yeahyeahyeahyeahyeah

Cm
Meomchuji mayo sarangui dance
I bameul geudaewa bonaego sipeunde

D#
I say yeah yeahyeahyeahyeahyeah
I say yeah yeahyeahyeahyeahyeah

G#            Cm
Nae mameul barabwayo

A#
Ireoke aetaneunde

G#             Cm
Jigeum nal jabajwoyo

A#         A#
Neutgi jeone eh eheheh
We canít go wrong, bring it back

Cm
Milgo danggijineun marajwoyo
Uri jogeumman soljikhaejyeoyo

D#
I said ooh jiltuhage haji mayo
Ooh jipchakhage haji mayo

Cm
Eodiseo mueol halkka gunggeumhaeyo
Hoksi ireon naega gwichannnayo?

D#
I said ooh jiltuhage haji mayo
Ooh jipchakhage haji mayo
Cm
I love you everyday
Don't get away
Take me away
I love you everyday
In everyway
Neol saranghae

D#
Wae ireon nae mameul ajik molla
Nan neoui maeumeul ajik jal molla

Cm
I love you everyday
Don't get away
Take me away
I love you everyday
In everyway
Neol saranghae

D#
Wae ireon nae mameul ajik molla
Nan neoui maeumeul ajik jal molla
Tap to rate this tab
# A B C D E F G H I J K L M N O P Q R S T U V W X Y Z