Song name
# A B C D E F G H I J K L M N O P Q R S T U V W X Y Z

2pac - Run Tha Streetz tab

-------------------------------------------------------------------------------
			     SONG NAME: Run Tha Streetz - Band Name: 2Pac
-------------------------------------------------------------------------------
Tabbed by:LFlo
Email:l_flo@hotmail.com

Tuning: Standard Tuning

e|-7---7-9-11-9-11---7--9-11-9---7-9-11-9-11-12-11-9-7---(Repeat)------------|
B|--7h9-----------7h9---------7h9--------------------------------------------|
G|---------------------------------------------------------------------------|
D|---------------------------------------------------------------------------|
A|---------------------------------------------------------------------------|
E|---------------------------------------------------------------------------|
Background bass line in
e|---------------------------------------------------------------------------|
B|---------------------------------------------------------------------------|
G|----------------------------(Repeat)---------------------------------------|
D|--------------------2------------------------------------------------------|
A|-0--------3-4---0h2--------------------------------------------------------|
E|------3h4------------------------------------------------------------------|


| /  slide up
| \  slide down
| h  hammer-on
| p  pull-off
| ~  vibrato
| +  harmonic
| x  Mute note
===============================================================================

Tap to rate this tab
# A B C D E F G H I J K L M N O P Q R S T U V W X Y Z