Song name
# A B C D E F G H I J K L M N O P Q R S T U V W X Y Z

2pac - Thugz Mansion tab

-------------------------------------------------------------------------------
			     thugs mansion - 2 pac
-------------------------------------------------------------------------------
tabbed by: wst870
email:
im not to sure if this tabs right but it sounds good......

e|--------------------------------------------6/7-7----------------------------|
B|----5--5--------5---5----3--5-5/6-6----3--5-5/6-6----------------------------|
G|----6--6--------4---4----4--6-6/7-7----4--6-6/7-7----------------------------|
D|----7--7--------6---6----4--6-6/7-7----4--6-4/5------------------------------|
A|----------0-4-----4----0-2--4-4/5----0-2--4-4/5------------------------------|
E|0-5--5-----------------------------------------------------------------------|
Tap to rate this tab
# A B C D E F G H I J K L M N O P Q R S T U V W X Y Z