Song name
# A B C D E F G H I J K L M N O P Q R S T U V W X Y Z

2raumwohnung - Sexy Girl Latin chords

The whole song is played by two power-chords: 
F#m and E (starting with A string, 9th and 7th fret)

e|--------------------------------------------------------------------------|
B|--------------------------------------------------------------------------|
G|--11--9---11-11--9--------------------------------------------------------|
D|--11--9---11-11--9--------------------------------------------------------|
A|--9---7---9--9---7--------------------------------------------------------|
E|--------------------------------------------------------------------------|

From time to time, the following riff is played:
e|--------------------------------------------------------------------------|
B|-----12--------12---------------------------------------------------------|
G|--11----9---11---9--9-9---------------------------------------------------|
D|--11----9---11---9--9-9---------------------------------------------------|
A|--9-----7---9----7--7-7---------------------------------------------------|
E|--------------------------------------------------------------------------|
Tap to rate this tab
# A B C D E F G H I J K L M N O P Q R S T U V W X Y Z