Song name
# A B C D E F G H I J K L M N O P Q R S T U V W X Y Z

2raumwohnung - Wir Trafen Uns In Einem Garten tab

----------------------------------------------------------------------------
	     Wir trafen uns in einem Garten - 2Raumwohnung
----------------------------------------------------------------------------

Tabbed by: ibaez89
Email: ibanez89@gmx.at


| /  slide up


There are 2 guitars and bass.
This is just the 1st guitar played over the Chorus!



Chorus1:

|----------------|----------------|----------------|----------------|
|--3-3--1-3-1----|----------------|----------------|--------------1-|
|--------------2-|--2-2--0-2-0----|----------------|-------------2--|
|----------------|--------------2-|--0-0--0-0--2---|----------------|
|----------------|----------------|----------------|--3-3--3-3-3----|
|----------------|----------------|----------------|----------------|


|----------------|----------------|----------------|----------------|
|--3-3--1-3-1----|----------------|----------------|----------------|
|--------------2-|--2-2--0-2-0----|----------------|----------------|
|----------------|--------------2-|--0-0--2--2--2/-|--6-6---6--7-4--|
|----------------|----------------|----------------|----------------|
|----------------|----------------|----------------|----------------|


Chorus2:

|----------------|----------------|----------------|----------------|
|--3-3--1-3-1----|----------------|----------------|--------------1-|
|--------------2-|--2-2--0-2-0----|----------------|-------------2--|
|----------------|--------------2-|--0-0--0-0--2---|----------------|
|----------------|----------------|----------------|--3-3--3-3-3----|
|----------------|----------------|----------------|----------------|


|----------------|----------------|----------------|----------------|
|--3-3--1-3-1----|----------------|----------------|----------------|
|--------------2-|--2-2--0-2-0----|----------------|----------------|
|----------------|--------------2-|--0-0--2--2--2/-|--6-6---6--7-4--|
|----------------|----------------|----------------|----------------|
|----------------|----------------|----------------|----------------|





Chorus3:

|----------------|----------------|----------------|----------------|
|----------------|----------------|----------------|----------------|
|----------------|----------------|----------------|----------------|
|----------------|----------------|----------------|----------------|
|----------------|----------------|----------------|----------------|
|----------------|----------------|----------------|----------------|


|----------------|----------------|----------------|----------------|
|--3-3--1-3-1----|----------------|----------------|----------------|
|--------------2-|--2-2--0-2-0----|----------------|----------------|
|----------------|--------------2-|--0-0--2--2--2/-|--6-6---6--7-4--|
|----------------|----------------|----------------|----------------|
|----------------|----------------|----------------|----------------|

|----------------|----------------|----------------|----------------|
|--3-3--1-3-1----|----------------|----------------|--------------1-|
|--------------2-|--2-2--0-2-0----|----------------|-------------2--|
|----------------|--------------2-|--0-0--0-0--2---|----------------|
|----------------|----------------|----------------|--3-3--3-3-3----|
|----------------|----------------|----------------|----------------|

|----------------|----------------|----------------|----------------|
|--3-3--1-3-1----|----------------|----------------|----------------|
|--------------2-|--2-2--0-2-0----|----------------|----------------|
|----------------|--------------2-|--0-0--2--2/----|----------------|
|----------------|----------------|----------------|----------------|
|----------------|----------------|----------------|----------------|

============================================================================
Tap to rate this tab
 
# A B C D E F G H I J K L M N O P Q R S T U V W X Y Z