Guitaretab - guitar tabs
Song name
# A B C D E F G H I J K L M N O P Q R S T U V W X Y Z

2tm23 - Biada Biada tab

Riff 1:

E1---------------------------------------------|
H2---------------------------------------------|
G3---------------------------------------------|
D4-5--5-5-5---5--5-5-5---5--5-5-5----5--5-5-5--|
A5-5--5-5-5---5--5-5-5---5--5-5-5----5--5-5-5--|
E6-3--3-3-3---3--3-3-3---3--3-3-3----3--3-3-3--|

Riff 2, play 4x:

E1-------------------------------------------|
H2-------------------------------------------|
G3-------------------------------------------|
D4--5--8--5--8--10--8--10--11--10--8--10--8--|
A5--5--8--5--8--10--8--10--11--10--8--10--8--|
E6--3--6--3--6--8---6--8---9---8---6--8---6--|

Riff 3, play 2x:

E1---------------------------|
H2---------------------------|
G3-------5-----------8---10--|
D4-5-----5-----5-----8---10--|
A5-5-----3-----5-----6---8---|
E6-3-----------3-------------|

Riff 1

Riff 2, play 4x

Riff 3, play 3x

Riff 1

Riff 4, play 4x
[ Tab from: http://www.guitaretab.com/numeric/2tm23/117063.html ]
E1--------------------------------------|
H2--------------------------------------|
G3--------------------------------------|
D4--2--5--2--5--7--5--7--8--7--5--7--5--|
A5--0--3--0--3--5--3--5--6--5--3--5--3--|
E6--------------------------------------|

Riff 5, play 2x

E1-------------------------------------|
H2-------------------------------------|
G3-------------------------------------|
D4-------------------------------------|
A5-2--5--2--5--7--5--7--8--7--5--7--5--|
E6-0--3--0--3--5--3--5--6--5--3--5--3--|

Riff 4, play 2x

Riff 6, play 2x

E1----------------------------------------------|
H2----------------------------------------------|
G3----------------------------------------------|
D4-7--10--7--10-12--10--12--13--12--10--12--10--|
A5-5--8---5--8--10--8---10--11--10--8---10--8---|
E6----------------------------------------------|

Riff 4, play 2x

end of riff 4:

E1----
H2----
G3----
D4-7--
A5-5--
E6----

Riff 3, play 2x

Riff 1


http://www.2tm23.art.pl/
Advertisement will be closed in 10 seconds