Song name
# A B C D E F G H I J K L M N O P Q R S T U V W X Y Z

3 Bedrooms - College tab

3 Bedrooms, College (2nd Guitar).
 Tabbed by Oz, Bmx Oz 2006@aol.com.
  
intro
-----------------------------------
-----------------------------------
----------------------------------
----------------------------------- play 4 x's
-55555555-----------------------
-----------------------------------                                                                             

verse
-----------------------------------
-----------------------------------
----------------------------------
---------------------------------- play 8 x's
-33------------------------------
----33-11-33------------------                                                                              

chorus
---------------------------------
---------------------------------
---------------------------------
--------------------------------- play 8 x's
-33-55-------------------------
-------33-11-------------------
                                                                              
outro
---------------------------------
---------------------------------
---------------------------------
--------------------------------- play 4 x's
-33-55-33-00-----------------
---------------------------------
 
outro (continued)
--------------------------------
---------------------------------
--------------------------------
-33-55-33-0-------------------
-33-55-33-0-------------------
---------------------------------

here's the order of the song:
1)intro                         4)verse
2)verse                        5)chorus
3)chorus                      6)outro                                        the end 
:: Ultimate Guitar Archive :: 
http://www.ultimate-guitar.com 



Tap to rate this tab
 
# A B C D E F G H I J K L M N O P Q R S T U V W X Y Z