Song name
# A B C D E F G H I J K L M N O P Q R S T U V W X Y Z

3 Colours Red - Nuclear Holiday tab

   G#5           Bb5            Eb5               C5

E|--------------|--------------|---------------|-----------------------|
B|--------------|--------------|---------------|-----------------------|
G|--------------|--------------|-8-0-0--10-0-0-|-8-0-0--10-0-0--8-10-8-|
D|------7-6-8-8-|------7-6-8-8-|---------------|-----------------------|
A|--6-8---------|--6-8---------|---------------|-----------------------|
E|--------------|--------------|---------------|-----------------------|

   G#5           Bb5            Eb5               Eb5

E|--------------|--------------|---------------|-----------------------|
B|--------------|--------------|---------------|-----------------------|
G|--------------|--------------|-8-0-0--10-0-0-|-8-0-0--10-0-0--10b12--|
D|------7-6-8-8-|------7-6-8-8-|---------------|-----------------------|
A|--6-8---------|--6-8---------|---------------|-----------------------|
E|--------------|--------------|---------------|-----------------------|


CHORDS USED

   G#5  Bb5 Eb5  C5

E|---------------------|
B|---------------------|
G|-----------8----5----|
D|-6----8----8----5----|
A|-6----8----6----3----|
E|-4----6--------------|
Tap to rate this tab
# A B C D E F G H I J K L M N O P Q R S T U V W X Y Z