Guitaretab - guitar tabs
Song name
# A B C D E F G H I J K L M N O P Q R S T U V W X Y Z

3 Doors Down - Let Me Be Myself Acoustic tab

-------------------------------------------------------------------------------
	         Let me be myself - 3 Doors Down
-------------------------------------------------------------------------------

Tabbed by: Harisgp
Email: Harispgp@yahoo.gr

Tuning : Standard

Intro/Verse :

e|---------------------------------------------------------------------|
B|--0h1------0h1--------0h1-----0h1----------------0h1-----0h1---------|
G|------0--------0---------2-------2-------------------2-------2-------|
D|--------2--------2--3-------2------2--3-2-0-0----------3------3-2\3--|
A|--3-------------------0--------------------------3-------------------|
E|---------------------------------------------------------------------|

e|-------------------------------|
B|--0h1-----0h1-----3------------|
G|------0-------0----------------|
D|--------0-------0--------------|
A|-------------------------------|
E|-------------------------------|

Pre-Chorus :

e|--0-0-0---0-0-0---3-3-3-------|
B|--1-1-1---1-1-1---0-0-0-------|
G|--2-2-2---0-0-0---0-0-0-------|
D|--2-2-2---2-2-2---0-0-0-------|
A|--0-0-0---3-3-3---2-2-2-------|
E|--0-0-0---x-x-x---3-3-3-------|

Chorus :

e|--0-0-0-----3-3-3------1-1-1------0-0--3-3--------------------------|
B|--1-1-1-----0-0-0------1-1-1------1-1--0-0--------------------------|
G|--0-0-0-----0-0-0------2-2-2------2-2--0-0--------------------------|
D|--2-2-2-----0-0-0------3-3-3------2-2--0-0--------------------------|
A|--3-3-3-----2-2-2------3-3-3------0-0--2-2--------------------------|
E|------------3-3-3------1-1-1------0-0--3-3--------------------------|


Solo :

e|----------------------------------------------------------|
B|----------------------------------------------------------|
G|----------------------------------------------------------|    X 2
D|----10--12--15--14--14-15-14------------------------------|
A|----x---x---x---x---x--x--x-------------------------------|
E|----8---10--13--12--12-13-12------------------------------|


e|-------------------------------------------------------------|
B|-------------------------------------------------------------|
G|-------------------------------------------------------------|
D|----10--12--14--15--14--12--10--12--10--/-9-/-7--------------|
A|----x---x---x---x----x---x---x---x---x--/-x-/-x--------------|
E|----8--10--12--13---12---10--8--10---8--/-7-/-5--------------|
    That's all I've ever wanted from this world
[ Tab from: http://www.guitaretab.com/numeric/3-doors-down/106160.html ]
e|-----------------------------------------------------------|
B|-----------------------------------------------------------|
G|-----------------------------------------------------------|  X 2
D|----10--12--15--14--14-15-14-------------------------------|
A|----x---x---x---x---x--x--x--------------------------------|
E|----8---10--13--12--12-13-12-------------------------------|

e|-----------------------------------------------------------|
B|-----------------------------------------------------------|
G|-----------------------------------------------------------|
D|----10--12--15--14--15-17----------------------------------|
A|----x---x---x---x---x--x-----------------------------------|
E|----8---10--13--12--13-15----------------------------------|


Chorus (After solo) :


e|-----------------------------------------------------0-3-----------|
B|----1---0h1------------0-------------1--0h1---------0-0-----------|
G|---0--0-----0--------0---0---------2---2-----2-------1-0-----------|
D|--2-----------2----0------0------3-------------3-----2-0-----------|
A|-3----------------2--------0---3-----------------3---2-2-----------|
E|----------------3------------------------------------0-3-----------|

Repeat chorus till fade



CHORDS :


Verse 1:
C
I guess I just got lost
Am
being someone else
F
I tried to kill the pain
G
but nothing ever helped
C
I left myself behind
Am
somewhere along the way
F
hoping to come back around
G
to find myself someday


Pre-Chorus :
Am                C          G
Lately I'm so tired of waiting for you
Am                C       G
to say that it's okay , tell me please...


Chorus :
 C                            G
Would you one time let me be myself
              F
so I can shine with my own light
Am            G
Let me be myself


Would you let me be myself?

Verse 2 : (as verse 1)
'Cause I'll never find my heart
behind someone else
I'lll never see the light of day
living in this cell
It's time to make my way
into the world I knew
And then take back all of these times
that I gave in to you

Repeat pre-chorus

Repeat chorus X2

[solo]
That's all I've ever wanted from this world
is to let me be me


Repeat chorus X 3

C                        G
Would you one time (woo-hoo)
F               Am
let me be myself
               C
and let me be me


Song ends on C

this is just an acoustic version but i think it will be close to the album version...plz 
THIS SONG!


| /  slide up
| \  slide down
| h  hammer-on
| p  pull-off
| ~  vibrato
| +  harmonic
| x  Mute note
Related for Let Me Be Myself Acoustic tab