Song name
# A B C D E F G H I J K L M N O P Q R S T U V W X Y Z

3 Doors Down - Potty On The Floor tab

Help us improve GuitareTab! Take a short survey!
1---0h2---------------0h4---------------|
2-------5--6---3h4p2---------------2----|
3----------------------------------3----|
4---------------------------------------|
5-------------------------8-7-9---------|
6----------------------------------0----|


1-------------1----------------8p5------------|
2----------2-----2-------2h3------------------|
3--------3---------5----------------2-4--3----|
4--6p5----------------------------------------|
5---------------------------------------------|
6---------------------------------------------|
Related for Potty On The Floor tab