Song name
# A B C D E F G H I J K L M N O P Q R S T U V W X Y Z

3 Doors Down - Somebody tab

tabbed by matt h. aka the ghetto candy

somebody by 3 doors down

h=hammer on p=pull off /=slide

so this song is fairly simple so have fun

intro

|---------------------------------|
|-0h1-------1-----------1-----3---|
|-----2-------0-------0-----0-----|
|-------2-------2---2-----2-------| repeat as necessary
|-----------------3---------------|
|---------------------------------|


pre chorus

|----------------------------------------------|
|---------------------0--------0--------3---1--|
|-----2------0------2--------0--------0-----0--|
|---2------2------2--------2--------2-------2--|
|-0------3------0--------3--------3---------3--|
|----------------------------------------------|
 [....repeat as needed....]


chorus/post chorus

|-------|---------|----------------------------------------------------|
|-1--1--|-1--1-1--|--------1p0--------1p0----------1p0-----------------|
|-2--0--|-0--2-2--|------2----------0------------2---------------0-2/4-|
|-2--2--|-2--2-2--|----2----------2------------2---------------2-------|
|-0--3--|-3-------|--0----------3------------0---------------3---------|
|-------|---------|----------------------------------------------------|
 ^^^^^^^end scale with this                            
[^^^struming...]                                      (there's more picking
 ^^^i'm sure you can figure out the struming pattern  at the end but it's
                                                        the same stuff)



and thats about all you need to know to play the song...have fun
Tap to rate this tab
# A B C D E F G H I J K L M N O P Q R S T U V W X Y Z