Song name
# A B C D E F G H I J K L M N O P Q R S T U V W X Y Z

3 Doors Down - These Days tab

THESE DAYS - 3 Doors Down - 3 Doors Down (2008)

Tabbed by: Mathieu Berube
Email: semi.charmedlife@hotmail.com

Tuning: Drop C

This is my second tab so please, be generous with the rating. I figured 2 guitars out of
(I Think :]). I'm working on to figure out the clean guitar in the verse and at the end
this tab's gonna be updated soon, I hope. You can figure out the strumming, it's very 
it's like Down, Down Up, up down up.
Guitar I:

Acoustic

Intro
D|-----------------------| (x2) (Strum)
A|-----------------------|
F|-----------------------|
C|-----1---5---8---3-----|
G|-----1---5---8---3-----|
C|-----1---5---8---3-----|

Verse
D|-----------------------| (x4) (Let Ring Each Chord)
A|-----------------------|
F|-----------------------|
C|-----5---8---3---1-----|
G|-----5---8---3---1-----|
C|-----5---8---3---1-----|

Pre-Chorus
D|-------------------| (x2) (Let Ring Each Chord)
A|-------------------|
F|-------------------|
C|-----1---3---5-----|
G|-----1---3---5-----|
C|-----1---3---5-----|

Chorus (Same as intro)(x2)

Bridge (Same as intro)(x4)

Guitar II:

Electric Guitar - Distortion

(Doesn't play in the verses, but for the rest of the song: Same as guitar I)

Guitar III:

Electric Guitar - Clean

(Trying to figure it out)

This Album is amazing, I bought it the day it came out. Go BUY IT!!!

============================================================================
Tap to rate this tab
# A B C D E F G H I J K L M N O P Q R S T U V W X Y Z