Song name
# A B C D E F G H I J K L M N O P Q R S T U V W X Y Z

3 Doors Down - She Dont Want The World tab

Great song! 

E----------------------------|-------------------------------------|
B-----------------5----------|-----------------5-------------------|
G----------5h7---------7-----|-----------5h7-------7---------------|
D------7------------------7--|-------7-----------------7---(7)\----|
A---0------------------------|---0---------------------------------|
E----------------------------|-------------------------------------|


E---------------0------------|------------0------------------------|
B---------0h3-------3--------|------0h3--------3---1---0-----------|
G-----------------------0----|-------------------------------------|
D----------------------------|-------------------------------------|
A----------------------------|-------------------------------------|
E---3------------------------|---3---------------------------------|


E----------------------------------0-------------------------------|
B---------0h1--------------1---------------------------------------|
G---------------2--------------2-----------------------------------|
D----------------------------------------7/12----10---9------------|
A------------------------------------------------------------------|
E---1-----------------1--------------------------------------------|


E-----------------------------|-------------------------------------|
B-----------------------5-----|-----------8-------------5-----------|
G----------5------------------|-------------------------------------|
D------7------------7---------|-------7-------------7---------------|
A---0-----------0-------------|---0-------------0-------------------|
E-----------------------------|-------------------------------------|

Tap to rate this tab
# A B C D E F G H I J K L M N O P Q R S T U V W X Y Z