Song name
# A B C D E F G H I J K L M N O P Q R S T U V W X Y Z

3 Doors Down - The Champion In Me tab

Artist: 3 Doors Down
Song: The Champion in Me
Tabbed by: Jamie Maison

Copyright 2008 Universal Records

Apologies for any mistakes in this TAB, I'm trying to write it from memory. Any 
comments appreciated.

Intro
Guitar 1
E--------------------------|--------------------|---------------------------|
B--------------------------|--------------------|---------------------------|
G------------------0-------|------------0-------|---------------------------|
D-------------0h2-----2----|-------0h2-----2----|--------7-----7-----7-----7|
A------------------------3-|------------------3-|8-8-7-8---7-8---7-8---7-8--|
E--------5-5---------------|--3-3---------------|---------------------------|

E--------------------------|--------------------|
B--------------------------|--------------------|
G------------------0-------|------------0-------|
D-------------0h2-----2----|-------0h2-----2----|
A------------------------3-|------------------3-|
E--------5-5---------------|--3-3---------------|

E----------------------------------|
B----------------------------------|
G----------------------------------|
D----------7-----7-----7-----10-9-7|
A--8-8-7-8---7-8---7-8---7-8-------|
E----------------------------------|
Verse
Guitar 1
E-------------------------|----------------------|----------------|
B-------------------------|----------------------|----------------|
G-------------------------|----------------------|----------------|
D-----777777-555555-333333|-33333-5-777777-555555|-333333-33333-5-|
A-----777777-555555-333333|-33333-5-777777-555555|-333333-33333-5-|
E-----777777-333333-111111|-11111-3-555555-333333|-111111-11111-3-|

E---------------------|--------------------|-----------------------------|
B---------------------|--------------------|-----------------------------|
G-------------0-------|------------0-------|-----------------------------|
D--------0h2-----2----|-------0h2-----2----|----------7-----7-----7-----7|
A-------------------3-|------------------3-|--8-8-7-8---7-8---7-8---7-8--|
E---5-5---------------|--3-3---------------|-----------------------------|

E----------------------|--------------------|
B----------------------|--------------------|
G--------------0-------|------------0-------|
D---------0h2-----2----|-------0h2-----2----|
A--------------------3-|-----------------3--|
E----5-5---------------|--3-3---------------|

E----------------------------------|
B----------------------------------|
G----------------------------------|
D----------7-----7-----7-----10-9-7|
A--8-8-7-8---7-8---7-8---7-8-------|
E----------------------------------|


Guitar 2
E------------------------|-----------------------|---------------------|
B------------------------|-----------------------|---------------------|
G------------------------|-----------------------|---------------------|
D----777777-555555-333333|-33333-5-777777-555555-|333333-33333-5-777777|
A----777777-555555-333333|-33333-5-777777-555555-|333333-33333-5-777777|
E----555555-333333-111111|-11111-3-555555-333333-|111111-11111-3-555555|

E---------------------|-------|
B---------------------|-------|
G---------------------|-------|
D--555555-333333-33333|-5-7---|
A--555555-333333-33333|-5-7---|
E--333333-111111-11111|-3-5---|


Chorus
Guitar 1 x4
E--12-12-12-12-12-12-10-10|-10-10-10-10-12-12-12-12-12|-12-12-12-12-12-12-12|
B-------------------------|---------------------------|---------------------|
G-------------------------|---------------------------|---------------------|
D-------------------------|---------------------------|---------------------|
A-------------------------|---------------------------|---------------------|
E-------------------------|---------------------------|---------------------|


Guitar 2
E------------------------|-----------------------|---------------------|
B------------------------|-----------------------|---------------------|
G------------------------|-----------------------|---------------------|
D----777777-555555-333333|-33333-5-777777-555555-|333333-33333-5-777777|
A----777777-555555-333333|-33333-5-777777-555555-|333333-33333-5-777777|
E----555555-333333-111111|-11111-3-555555-333333-|111111-11111-3-555555|

E---------------------|-------|
B---------------------|-------|
G---------------------|-------|
D--555555-333333-33333|-5-7---|
A--555555-333333-33333|-5-7---|
E--333333-111111-11111|-3-5---|


Pre-Verse
Guitar 1
E--------------------------|--------------------|---------------------------|
B--------------------------|--------------------|---------------------------|
G------------------0-------|------------0-------|---------------------------|
D-------------0h2-----2----|-------0h2-----2----|--------7-----7-----7-----7|
A------------------------3-|------------------3-|8-8-7-8---7-8---7-8---7-8--|
E--------5-5---------------|--3-3---------------|---------------------------|

E--------------------------|--------------------|
B--------------------------|--------------------|
G------------------0-------|------------0-------|
D-------------0h2-----2----|-------0h2-----2----|
A------------------------3-|------------------3-|
E--------5-5---------------|--3-3---------------|

E----------------------------------|
B----------------------------------|
G----------------------------------|
D----------7-----7-----7-----10-9-7|
A--8-8-7-8---7-8---7-8---7-8-------|
E----------------------------------|

Verse x1

Chorus x1

Fill 1 (Haven't worked this out quite yet, will add it in when I get it right)


Fill 2
Guitar 1 x4
E-----------------------|----------------------------|----------------------|
B-----------------------|----------------------------|----------------------|
G-------5---5-6-5------4|--4-5-4----------2-----2----|-2-----2--------------|
D---7-7---7--------5-5--|5--------3-3-2-3---2-3---2-3|---2-3----------------|
A-----------------------|----------------------------|----------------------|
E-----------------------|----------------------------|----------------------|


Chorus x1

Fill 1

END

Copyright 2008 Universal Records, I do not own any rights to this song nor that of 3 
Down.
All credit goes to Brad Arnold, Chris Henderson, Matt Roberts, Todd Harell & Greg 
as well as Universal Records.
Tap to rate this tab
# A B C D E F G H I J K L M N O P Q R S T U V W X Y Z