Song name
# A B C D E F G H I J K L M N O P Q R S T U V W X Y Z

3 Doors Down - Kyptonite tab

Krytonite:

Standard tuning:
Intro                             3x
e\------------------------------------------------------
B\-------3----------------------0-----------------------
G\-----4---4---0-------0------2-------------------------
D\---4-------4-------0------2---------------------------
A\-2---------------2------0-----------------------------
E\---------------3--------------------------------------

 After the 3rd time play this
e\------------------------0------------
B\-------3------------------2----------
G\-----4---4---0-------0------2--------
D\---4-------4-------0-----------------
A\-2---------------2-------------------
E\---------------3---------------------
Tap to rate this tab
# A B C D E F G H I J K L M N O P Q R S T U V W X Y Z