Song name
# A B C D E F G H I J K L M N O P Q R S T U V W X Y Z

3 Doors Down - These Days tab

This is the intro for the song ``These days´´ by 3 doors down.

Standard tuning.

This is my first tab :)

Hope you like it!


lead guitar:

|-------------------------------------------------|
|----0------1------0-----0--------1-------0-------|
|--2---2------2------------2--------2-------------|
|---------------3------------2--------2-----------|
|--------------------0----------------------------|
|-------------------------------------------------|


|---------------------------------------------------------|
|------1--------0---------0--------1-------0------0-------|
|-------------0---0------------------0-------0------------|
|--------------------------------------0-------0----------|
|----3---3-------------3----------------------------------|
|-------------------------------3-------------------------|    


Rythm guitar:

Figure out the strumming for yourself :)
|--------------------------------------------------|
|--------------------------------------------------|
|------------2-----------5-------------------------|
|-3----------2-----------5-----------5-------------|
|-3----------0-----------3-----------5-------------|
|-1----------------------------------3-------------|    



Comment and rate ! :D

           
Tap to rate this tab
 
# A B C D E F G H I J K L M N O P Q R S T U V W X Y Z