Song name
# A B C D E F G H I J K L M N O P Q R S T U V W X Y Z

3 Doors Down - She Dont Want The World tab

e|----------------------------------------------------------------------------|
B|----------------------------------------------------------------------------|
G|-----------10-12-13-15--------------15-17-----------------------------------|
D|-10-13-------------------17--13-13---------17-15-17--13--10-10--------------|
A|----------------------------------------------------------------------------|
E|----------------------------------------------------------------------------|

e|----------------------------------|
B|----------------------------------|
G|-10-12-10-------------------------|
D|-------------13-10----------------|
A|-----------------------6-4-3------|
E|----------------------------------|
Tap to rate this tab
# A B C D E F G H I J K L M N O P Q R S T U V W X Y Z