Song name
# A B C D E F G H I J K L M N O P Q R S T U V W X Y Z

3 Doors Down - She Dont Want The World tab

play this all way through.
e|---------------------------------------0------------0--------|
B|---------5---------------5---------0h3---3------0h3---3-1-0--|
G|-----5h7---7---------5h7---7---------------0-----------------|
D|---7---------7-----7---------7-------------------------------|
A|-------------------------------------------------------------|
E|-5---------------5---------------3-----------3---------------|

e|----------------0--------------------------------------------|
B|---0h1------1------------------------5----8----5-------------|
G|-------2------2---2/7-5-4------5-----------------------------|
D|-----------------------------7-----7----7----7---------------|
A|---------------------------0-----0-----0----0----------------|
E|-1--------1--------------------------------------------------|

Solo
e|-------------------------------------------------------------------------|
B|-------------------------------------------------------------------------|
G|-------10-12-13-15----------15-17-------------------10-12-10-------------|
D|-10-13-------------17-13-13-------17-15-17-13-10-10----------13-10-------|
A|-------------------------------------------------------------------6-4-5-|
E|-------------------------------------------------------------------------|

e|---------------------------|
B|-----------5-----8-----5---|
G|-----5---------------------|
D|---7-----7-----7-----7-----|
A|-0-----0-----0-----0-------|
E|---------------------------|

repeat from begining till end of the song.
Tap to rate this tab
 
# A B C D E F G H I J K L M N O P Q R S T U V W X Y Z