Song name
# A B C D E F G H I J K L M N O P Q R S T U V W X Y Z

3 Doors Down - She Dont Want The World tab

----------------------------------------------------------------------------
			     SHE DON'T WANT THE WORLD-3 Doors Down
----------------------------------------------------------------------------

Tabbed by: epiman20
Email: ibanez_20@hotmail.com
This is a cool song and I couldn't find a good tab for it, so I did it myself, hope you like it.

Tuning: Eb (Eb, Ab, Db, Gb, Bb, eb)


eb|-----------------------------------------------------------------------|
Bb|----------2---------------2------------2-------------2-----------------|
Gb|------2h4---4---------2h4---4------1h4---4-------1h4---4-2-1-----------|
Db|----4---------4----4----------4------------2---------------------------|
Ab|-----------------------------------------------------------------------|
Eb|--2--------------2---------------0-------------0-----------------------|

e|------------------------------------------------------------------------|
B|----------------2------------------------2------5-----2-----------------|
G|---1h2-----2-------2/4-2-1--------2-------------------------------------|
D|-------4-----4------------------4-----4------4------4-------------------|
A|------------------------------------------------------------------------|
E|------------------------------2------2------2-----2---------------------|

repeat.

************************************

| /   slide up
| \   slide down
| h   hammer-on
| p   pull-off
| ~   vibrato
| +   harmonic
| x   Mute note
| b   Bend
| pb  Pre-bend
| br  Bend release
| pbr Pre-bend release
| brb Bend release bend

************************************
Tap to rate this tab
# A B C D E F G H I J K L M N O P Q R S T U V W X Y Z