Guitaretab - guitar tabs
Song name
# A B C D E F G H I J K L M N O P Q R S T U V W X Y Z

3 Doors Down - Be Like That tab

-------------------------------------------------------------------------------
                         Be Like That - Three Doors Down
-------------------------------------------------------------------------------

Verse (let ring throughout)
e|------3---------|----------------|----------------|----------0-----|
B|----------3-----|------5---------|----------5-----|------3-----3---|
G|----------------|--7-------7-----|------7-----7---|----5---------0-|x2 for
D|--5---------5---|----7-------7---|--5-----------5-|--5-------------|intro
A|----5---------5-|5-------------5-|7---7-----------|3---------------|x4 for
E|3---------------|----------------|0---------------|----------------|verse

Chorus
  G                D                Em               C
e|----------------|----------------|----------------|----------------|
B|----------------|7---7-7-----7-7-|8---8-8-----8-8-|5---5-5-----5-5-|
G|4---4-4-----4-4-|7---7-7-----7-7-|9---9-9-----9-9-|5---5-5-----5-5-|
D|5---5-5-----5-5-|7---7-7-----7-7-|9---9-9-----9-9-|5---5-5-----5-5-|x2
A|5---5-5-----5-5-|5---5-5-----5-5-|7---7-7-----7-7-|3---3-3-----3-3-|
E|3---3-3-----3-3-|----------------|----------------|----------------|

Bridge
  A5               C5               G5
e|----------------|----------------|----------------|----------------|
B|----------------|----------------|----------------|----------------|
G|----------------|5---5-5-----5---|----------------|----------------|
D|7---7-7-----7---|5---5-5-----5---|5---5-5-----5---|5---5-5-----5---|
A|7---7-7-----7---|3---3-3-----3---|5---5-5-----5---|5---5-5-----5---|
E|5---5-5-----5---|----------------|3---3-3-----3---|3---3-3-----3---|
 
  A5               C5               G5               B5      C5
e|----------------|----------------|----------------|----------------|
B|----------------|----------------|----------------|----------------|
G|----------------|5---5-5-----5---|----------------|4---4-4/5---5-5-|
D|7---7-7-----7---|5---5-5-----5---|5---5-5-----5---|4---4-4/5---5-5-|
A|7---7-7-----7---|3---3-3-----3---|5---5-5-----5---|2---2-2/3---3-3-|
E|5---5-5-----5---|----------------|3---3-3-----3---|----------------|

Verse x4, Chorus x2, Bridge, Verse x2, Chorus x4

Outro
  Em               C                        G
e|----------------|----------------|       |----------------|----------------|
B|8---8-8---8---8-|5---5-5---5---5-|       |----------------|----------------|
G|9---9-9---9---9-|5---5-5---5---5-|       |4---------------|----------------|
D|9---9-9---9---9-|5---5-5---5---5-|x3 then|5----Hold-------|----------------|
A|7---7-7---7---7-|3---3-3---3---3-|       |5---------------|----------------|
E|----------------|----------------|       |3---------------|----------------|

-------------------------------------------------------------------------------
[ Tab from: http://www.guitaretab.com/numeric/3-doors-down/22914.html ]
Related for Be Like That tab
Be Like That chords by 3 Doors Down