3 Doors Down - Kryptonite Acoustic tab

3 Doors Down
Kryptonite Acoustic

These are the tabs to the Ovation tv performance.
Listen to song for strumming.
I did not add the solo because I wasn't sure if it was right, but i think
he plays it the same way on an electric guitar, but instead of picking
he strums it. 

Intro

e|-------0--------------------------------0--0----------------0------|
B|-------3-----------------------0--------3----0----------------0----|
G|-----4---4---0--------0------2--------4--------0--------0-------2--|x4
D|---4-------4--------0------2--------4-----------------0------------|  
A|-2----------------2------0--------2-----------------2-----0--------|
E|----------------3---------------------------------3----------------|

Bridge

e|------------------------3-3--3-3-3--0-0--0-0-0--|
B|-3-3--3-3-3-3-3--3-3-3--3-3--3-3-3--0-0--0-0-0--|
G|-4-4--4-4-4-4-4--4-4-4--0-0--0-0-0--2-2--2-2-2--|x2
D|-4-4--4-4-4-4-4--4-4-4--0-0--0-0-0--2-2--2-2-2--|
A|-2-2--2-2-2-2-2--2-2-2--2-2--2-2-2--0-0--0-0-0--|
E|------------------------3-3--3-3-3--0-0--0-0-0--|

Verse

e|-------0--------------------------------0--0----------------0------|
B|-------3-----------------------0--------3----0----------------0----|
G|-----4---4---0--------0------2--------4--------0--------0-------2--|x2
D|---4-------4--------0------2--------4-----------------0------------|  
A|-2----------------2------0--------2-----------------2-----0--------|
E|----------------3---------------------------------3----------------|

Chorus

e|------------------------3-3--3-3-3--0-0--0-0-0--|
B|-3-3--3-3-3-3-3--3-3-3--3-3--3-3-3--0-0--0-0-0--|
G|-4-4--4-4-4-4-4--4-4-4--0-0--0-0-0--2-2--2-2-2--|x6
D|-4-4--4-4-4-4-4--4-4-4--0-0--0-0-0--2-2--2-2-2--|
A|-2-2--2-2-2-2-2--2-2-2--2-2--2-2-2--0-0--0-0-0--|
E|------------------------3-3--3-3-3--0-0--0-0-0--|

Verse 2

e|-------0--------------------------------0--0----------------0------|
B|-------3-----------------------0--------3----0----------------0----|
G|-----4---4---0--------0------2--------4--------0--------0-------2--|x2
D|---4-------4--------0------2--------4-----------------0------------|  
A|-2----------------2------0--------2-----------------2-----0--------|
E|----------------3---------------------------------3----------------|

Chorus 2

e|------------------------3-3--3-3-3--0-0--0-0-0--|
B|-3-3--3-3-3-3-3--3-3-3--3-3--3-3-3--0-0--0-0-0--|
G|-4-4--4-4-4-4-4--4-4-4--0-0--0-0-0--2-2--2-2-2--|x8
D|-4-4--4-4-4-4-4--4-4-4--0-0--0-0-0--2-2--2-2-2--|
A|-2-2--2-2-2-2-2--2-2-2--2-2--2-2-2--0-0--0-0-0--|
E|------------------------3-3--3-3-3--0-0--0-0-0--|

Interlude

e|---------2------2------3--------|
B|-------3---3------2------3------|
G|-----4-------4------2------4----|x4
D|---4----------------------------|
A|-2------------------------------|
E|--------------------------------|

Chorus 3

e|------------------------3-3--3-3-3--0-0--0-0-0--|
B|-3-3--3-3-3-3-3--3-3-3--3-3--3-3-3--0-0--0-0-0--|
G|-4-4--4-4-4-4-4--4-4-4--0-0--0-0-0--2-2--2-2-2--|x8
D|-4-4--4-4-4-4-4--4-4-4--0-0--0-0-0--2-2--2-2-2--|
A|-2-2--2-2-2-2-2--2-2-2--2-2--2-2-2--0-0--0-0-0--|
E|------------------------3-3--3-3-3--0-0--0-0-0--|

Thank You

Tap to rate this tab
 
# A B C D E F G H I J K L M N O P Q R S T U V W X Y Z