Song name
# A B C D E F G H I J K L M N O P Q R S T U V W X Y Z

3 Doors Down - When Im Gone tab

----------------------------------------------------------------------------
			     When I'm Gone - 3 Doors Down
----------------------------------------------------------------------------
Tabbed by: GreenDay726
Email: daviddint26@yahoo.com
                             Please email me or comment for any mistakes that i've made.

Tuning: Standard
                      I'm mostly writing the lead guitar to this song but the main
chords in the verse are A5, C5, and G5
| /   slide up
| \   slide down
| h   hammer-on
| p   pull-off
| ~   vibrato
| +   harmonic
| x   Mute note
| b   Bend
| pb  Pre-bend
| br  Bend release
| pbr Pre-bend release
| brb Bend release bend

   A5
e|---------------------------------------------------------------------------|
B|---------------------------------------------------------------------------|
G|---4/5---7----9--9------------4/5-4--7-5--4/5--4----2----------------------|
D|---------------------------------------------------------------------------|
A|---------------------------------------------------------------------------|
E|---------------------------------------------------------------------------|
                                Verse (clean)
e|---------------------------------------------------------------------------|
B|---------------------------------------------------------------------------|
G|----2--------5-------------------------------------------------------------|
D|----2--------5----5--------------------------------------------------------|
A|----0--------3----5--------------------------------------------------------|
E|------------------3--------------------------------------------------------|

                                           x2
e|---------------------------------------------------------------------------|
B|---------------------------------------------------------------------------|
G|----2---4/5-----7----------------2------4/5------4-------------------------|
D|---------------------------------------------------------------------------|
A|---------------------------------------------------------------------------|
E|---------------------------------------------------------------------------|
                                x2
e|---------------------------------------------------------------------------|
B|---------------------------------------------------------------------------|
G|---4/5---5/4----2--2------2--2------4/5-5/7--7--7--------------------------|
D|----------------2--2------2--2---------------7--7-------5--5---------------|
A|---2/3---3/2----0--0-0-0--0--0-0-0--2/3-3/5--5--5--x-x--5--5---------------|
E|---------------------------------------------------x-x--3--3---------------|  . .       . .

e|---------------------------------------------------------------------------|
B|------------------------7---7----------------------------------------------|
G|--2----------4/5----7---9b--9br---------2-----4/5---7-5-4--5-4-2-----------|
D|---------------------------------------------------------------------------|
A|---------------------------------------------------------------------------|
E|---------------------------------------------------------------------------|

                                Bridge
                                  x2
e|------------------------------------------------------------------------------|
B|------------------------------------------------------------------------------|
G|--2----4/5------5/7-----7/9\7/9---2-------------------------------------------|
D|--2------------------------------2--------------------------------------------|
A|--0-0-0-2/3--0-0-3/5-0-0-5/7\5/7--0-0-0-2/3-0-0-3/5-x-x-----------------------|
E|---------------------------------------------------------0--0-0---------------|

e|---------------------------------------------------------------------------|
B|---------------------------------------------------------------------------|
G|--2------------------------------------------------------------------------|
D|--2------------------------------------------------------------------------|
A|--0------------------------------------------------------------------------|
E|---------------------------------------------------------------------------|
                          x2
e|---------------------------------------------------------------------------|
B|---------------------------------------------------------------------------|
G|---2---4/5---7-------2----4/5-----4----------------------------------------|
D|---------------------------------------------------------------------------|
A|---------------------------------------------------------------------------|
E|---------------------------------------------------------------------------|

                                 Solo (the way i play it)
e|---------------------------------------------------------------------------|
B|---------------------------------------------------------------------------|
G|---------------------------------------------------------------------------|
D|--7-------7--5--7-------7-5-4-5-4---------4-7-5-4--------------------------|
A|--7-------------------------------7-5---7---------7-5-0--------------------|
E|--5------------------------------------------------------7-8--5--7-8-------|

e|---------------------------------------------------------------------------|
B|---------------------------------------------------------------------------|
G|-----5------5-----5--------------------------------------------------------|
D|--7-----7-------7----------9-----7-----9-7----9------7----9--7-------------|
A|---------------------------------------------------------------------------|
E|---------------------------------------------------------------------------|

e|------------------------------------------------13--15---17b--17br--|
B|------------------------------------------------14------------------|
G|------------------------------------12-----15---15------------------|
D|---12-12-14-12-12-14-12-14-----14-----------------------------------|
A|--------------------------------------------------------------------|
E|--------------------------------------------------------------------|
Tap to rate this tab
 
# A B C D E F G H I J K L M N O P Q R S T U V W X Y Z