Song name
# A B C D E F G H I J K L M N O P Q R S T U V W X Y Z

3 Doors Down - So I Need You Acoustic tab

======================================
3 Doors Down - So i need you (Acoustic)
======================================

-------------------------------------------------------------------------

Thought id put this tab up for everyone, since it isn't already here.
This tab isnt by me, so no credit here, but its an excellent tab.

one thing..
in the prechorus i just play a mix of arpeggio and strumming with the chords (x32010) & (x54030)

------------------------------------------------------------------------

Author/Artist: 3 Doors Down
Title: So I Need You (acoustic)
Album: The Better Life
Transcribed by: Shaun Harris
Email: Maliki64@aol.com
Solo Added By: MrFloyd
Tuning: Standard (EADGBe)

Intro/main riff
------------0-0-0-0-0-0-0-0-0-0-0-0---------------|
------------3-3-3-3-3-3-3-1-1-1-1-1---------------|
--7-7-----7-0-0-0-0-0-0-0-0-0-0-0-0-4-4-----------|
--5-5-5-5-5-4-4-4-4-4-4-4-2-2-2-2-2-4-4-2-0-------|
--7-7-7-7-7-5-5-5-5-5-5-5-3-3-3-3-3-2-2-3-2-2-0---|
--0-0-0-0-0---------------------------------3-2---|

Verse
----------------------------3---3-----------------|
------------3-3-3-3-3-3-3---3---3-0-0-x-0-0-0-0---|
--7-7-----7-0-0-0-0-0-0-0-0-0-0-0-2-2-x-2-2-2-0---|
--5-5-5-5-5-4-4-4-4-4-4-4-0---0---2-2-x-2-2-2-0---|
--7-7-7-7-7-5-5-5-5-5-5-5-2---2---0-0-0-0-0-0-0---|
--0-0-0-0-0---------------3---3-------------------|
If you ...
and if you ...


Pre-Chorus
--------------------------------------------------|
------0-------------7---------0-------------7-----|
------5-5---------9---9-9-----5-5---------9---9-9-|
----5-----5-----9-------9---5-----5-----9-------9-|
--3---------3/7---------7-3---------3/7---------7-|
------------------------0-----------------------0-|
or would you ..
I cant get ...


---------------------------|
------0-------------5------|
------5-5---------7---7-7--|
----5-----5-----7-------7--|
--3---------3/5---------5--|
------------------------0--|
and I will say


Chorus
------------0-0-0-0-0-0-0-0-0-0-0-0---------------|
------------3-3-3-3-3-3-3-1-1-1-1-1---------------|
--7-7-----7-0-0-0-0-0-0-0-0-0-0-0-0-4-4-----------|
--5-5-5-5-5-4-4-4-4-4-4-4-2-2-2-2-2-4-4-----------|
--7-7-7-7-7-5-5-5-5-5-5-5-3-3-3-3-3-2-2-3-2-------|
--0-0-0-0-0---------------------------------3-2---|
oh no, I ...
because ...
Your imitation ...
it's just ...

----------------------------3---3-----------------|
------------3-3-3-3-3-3-3---3---3-0-0-x-0-0-0-0---|
--7-7-----7-0-0-0-0-0-0-0-0-0-0-0-2-2-x-2-2-2-0---|
--5-5-5-5-5-4-4-4-4-4-4-4-0---0---2-2-x-2-2-2-0---|
--7-7-7-7-7-5-5-5-5-5-5-5-2---2---0-0-0-0-0-0-0---|
--0-0-0-0-0---------------3---3-------------------|
So I need you, so I need you, so I need you, so I need you

Pre-Solo
1st guitar
----------------------------3---3-----------------|
------------3-3-3-3-3-3-3---3---3-0-0-x-0-0-0-0---|
--7-7-----7-0-0-0-0-0-0-0-0-0-0-0-2-2-x-2-2-2-0---|
--5-5-5-5-5-4-4-4-4-4-4-4-0---0---2-2-x-2-2-2-0---|
--7-7-7-7-7-5-5-5-5-5-5-5-2---2---0-0-0-0-0-0-0---|
--0-0-0-0-0---------------3---3-------------------|


Solo

e---------------------------------------------------------------------------|
B---------------------------------------------------------------------------|
G----9-11-12-11-9---9-11-12-11-9---9-11-12-11-12-14-12-11-9-7---------------|
D---------------------------------------------------------------------------|
A---------------------------------------------------------------------------|
E---------------------------------------------------------------------------|

e---------------------------------------------------------------------------|
B---------------------------------------------------------------------------|
G-----9-11-12-11-9---9-11-12-11-9---9-11-12-11-12-14-12-11-12---------------|
D---------------------------------------------------------------------------|
A---------------------------------------------------------------------------|
E---------------------------------------------------------------------------|

Second guitar
-----------------------------------------------------------------------------|
-----------------------------------------------------------------------------|
-9-9-9-9-11-11-11-11-11-12-12-12-12-14-14-14-12-12-12-12-10-10-10-10-9-9-9-9-|
---x-x-x-x--x--x--x--x--x--x--x--x--x--x--x--x--x--x--x--x--x--x--x--x-x-x-x-|
7--7-7-7-9--9--9--9--10-10-10-10-12-12-12-12-10-10-10-10-9--9--9--9--7-7-7-7-|
-----------------------------------------------------------------------------|

I'm on my own, I'm on my own, I'm on my own
Tap to rate this tab
# A B C D E F G H I J K L M N O P Q R S T U V W X Y Z