Song name
# A B C D E F G H I J K L M N O P Q R S T U V W X Y Z

3 Doors Down - Race For The Sun tab

-------------------------------------------------------------------------------
			     Race for the Sun by 3 Doors Down
-------------------------------------------------------------------------------
Album: Time of My Life
Tabbed by: dididietrich
Tuning: Standard

I didn't include the strumming patterns, guess you can hear them.
I'm not really sure about the ending, also lead part in the final chorus is 
missing yet, but it's probably similar to the solo part with lots of wah.

Intro: (2x)                                                                     
e|------------------|-----------------|--------------------|-----------------|
B|------------------|-----------------|--------------------|-----------------|
G|------------------|-----------------|--------------------|-----------------|
D|------------------|-----------------|--------------------|-----------------|
A|--5-5-5-7-7-7-8-8-|-5-5-5-7-7-7-8-8-|-10-10-10-8-8-8-7-7-|-8-8-8-7-7-7-8-8-|
E|------------------|-----------------|--------------------|-----------------|

Verse: (2x)
e|------------------|-----------------|--------------------|-----------------|
B|------------------|-----------------|--------------------|-----------------|
G|------------------|-----------------|--------------------|-----------------|
D|------------------|-----------------|--------------------|-----------------|
A|--5-5-5-7-7-7-8-8-|-5-5-5-7-7-7-8-8-|-10-10-10-8-8-8-7-7-|-8-8-8-7-7-7-8-8-|
E|------------------|-----------------|--------------------|-----------------|

e|------------------|-----------------|-----------------|-----------------|
B|------------------|-----------------|-----------------|-----------------|
G|------------------|-----------------|-----------------|-----------------|
D|------------------|-----------------|-----------------|-----------------|
A|--5-5-5-7-7-7-8-8-|-5-5-5-7-7-7-8-8-|-3-3-3-8-8-8-7-7-|-8-8-8-7-7-7-8-8-|
E|------------------|-----------------|-----------------|-----------------|

Chorus: (2x)
e|---------------------------------------------------------------------------|
B|---------------------------------------------------------------------------|
G|-7---5---10-----------7---5------------------------------------------------|
D|-7---5---10----7---10-7---5---3---5----------------------------------------|
A|-5---3----8----7---10-5---3---3---5----------------------------------------|
E|---------------5----8---------1---3----------------------------------------|

Intro (1x)

Verse (1x)

Chorus (2x)

Bridge: (2x)
e|---------------------------------------------------------------------------|
B|---------------------------------------------------------------------------|
G|-7-77-7-7-77-10--5-55-5-5-55-----------------------------------------------|
D|-7-77-7-7-77-10--5-55-5-5-55-----------------------------------------------|
A|-5-55-5-5-55--8--3-33-3-3-33-----------------------------------------------|
E|---------------------------------------------------------------------------|

Solo: (add a lot of wah!!)
e|---------------------------------------------------------------------------|
B|---------------------------------------------------------------------------|
G|-10----5----7---5/7--10---12-----------------------------------------------|
D|---------------------------------------------------------------------------|
A|--8----3----5---3/5---8---10-----------------------------------------------|
E|---------------------------------------------------------------------------|

Last Chorus: (2x)
e|---------------------------------------------------------------------------|
B|---------------------------------------------------------------------------|
G|-7-77-7-7-77-10--5-55-5-5-55-----------------------------------------------|
D|-7-77-7-7-77-10--5-55-5-5-55-----------------------------------------------|
A|-5-55-5-5-55--8--3-33-3-3-33-----------------------------------------------|
E|---------------------------------------------------------------------------|

e|---------------------------------------------------------------------------|
B|---------------------------------------------------------------------------|
G|-7-77-7-7-77-10--5-55-/999101010-------------------------------------------|
D|-7-77-7-7-77-10--5-55-/999101010-------------------------------------------|
A|-5-55-5-5-55--8--3-33-/777-8-8-8-------------------------------------------|
E|---------------------------------------------------------------------------|

Ending:
e|---------------------------------------------------------------------------|
B|---------------------------------------------------------------------------|
G|-7/9-10--9--5--7~----------------------------------------------------------|
D|-7/9-10--9--5--7~----------------------------------------------------------|
A|-5/7--8--7--3--5~----------------------------------------------------------|
E|---------------------------------------------------------------------------|

Tap to rate this tab
# A B C D E F G H I J K L M N O P Q R S T U V W X Y Z