Song name
# A B C D E F G H I J K L M N O P Q R S T U V W X Y Z

3 Doors Down - Whats Left tab

Tabbed by: Kyle Casey
Email: eracman920@gmail.com
Tabbed: Feb. 2012
Tuning: STANDARD

Guitar 1: Rhythm
Guitar 2: Lead

This may be the correct way to play by my hearing. By 98% 
I put the lyrics under the tabs so you'll know when to play that part.


INTRO:
E-----------------------------------------------|
B----3---1---0---0h1---3---3---1---0h1---3-1----|
G--------------------------------------------0--|
D-----------------------------------------------|
A--3---3---3---3-----3---3---3---3-----3--------|
E-----------------------------------------------|


E----------------------------------------|
B----------0------0--0--------0------0---|
G------0h4---4-----4------0h4---4-----4--|
D---------5----5-------------5----5------|
A-----5------------------5---------------|
E--3------------------3------------------|
                                     

VERSE:
E-----------------------------------------------|
B----3---1---0---0h1---3---3---1---0h1---3-1----|
G--------------------------------------------0--|
D-----------------------------------------------|
A--3---3---3---3-----3---3---3---3-----3--------|
E-----------------------------------------------|
 A few pictures, two tickets, from a trip
 We took last year 

E--------------------------------------------|
B----------0------0--0---------0------0------|
G------0h4---4-----4------0h4---4------4-----|
D---------5----5-------------5----5----------|
A-----5------------------5-------------------|
E--3------------------3----------------------|
 A handful of memories, some still seem clear


E--------------------------------------------------|
B----3---1---0---0h1---3---3---1---0h1---3-1-------|
G--------------------------------------------0-----|
D--------------------------------------------------|
A--3---3---3---3-----3---3---3---3-----3-----------|
E--------------------------------------------------|
 Few regrets, couple melodies that remind me of you


E--------------------------------------------|
B----------0------0--0---------0------0------|
G------0h4---4-----4------0h4---4------4-----|
D---------5----5-------------5----5----------|
A-----5------------------5-------------------|
E--3------------------3----------------------|
 I could say that I won't miss this
 That wouldn't be the truth

PRE-CHORUS:
E--------------------------------------------------|
B--------------------------------------------------|
G--------------------------------------------------|
D--------3---------------------5-------------------|
A--------3---------------------5-------------------|
E--------1---------------------3-------------------|
 There's no one here to blame, this is the only way

E-----------------------------------------------------------|
B-----------------------------------------------------------|
G-----------------------------------------------------------|
D--------3---------------------5----------------------------|
A--------3---------------------5----------------------------|
E--------1---------------------3----------------------------|
 There's nothing left for us to say| It's time to let you go

CHORUS: (There are 2 guitars from now on. Guitar 2 is lead).
Guitar 1
E-------------------------------------------------------------|
B-------------------------------------------------------------|
G-5-5-5-5-5-5-5-5---------------------------------------------|
D-5-5-5-5-5-5-5-5--------------5-5-5-5-5-5-5-5----------------|
A-3-3-3-3-3-3-3-3--------------5-5-5-5-5-5-5-5----------------|
E------------------------------3-3-3-3-3-3-3-3----------------|
        It's what we have to do      It's time to give this up

Guitar 2
E-------8----------------------------7------------------------|
B-----8-------------------------------------------------------|
G---5----------------------------5-7--------------------------|
D-------------------------------------------------------------|
A-------------------------------------------------------------|
E-------------------------------------------------------------|

Guitar 1
E-----------------------------------------------------------------|
B-----------------------------------------------------------------|
G-----------------------------------------------------------------|
D-3-3-3-3-3-3-3-3----------------5-5-5-5-5-5-5-5------------------|
A-3-3-3-3-3-3-3-3----------------5-5-5-5-5-5-5-5------------------|
E-1-1-1-1-1-1-1-1----------------3-3-3-3-3-3-3-3------------------|
        I think that we both knew      There's nothing left to say

Guitar 2
E-----3-5----------------------------7------------------------|
B-------------------------------------------------------------|
G---5----------------------------5-7--------------------------|
D-------------------------------------------------------------|
A-------------------------------------------------------------|
E-------------------------------------------------------------|

Guitar 1
E-------------------------------------------------------------|
B-------------------------------------------------------------|
G-5-5-5-5-5-5-5-5---------------------------------------------|
D-5-5-5-5-5-5-5-5--------------5-5-5-5-5-5-5-5----------------|
A-3-3-3-3-3-3-3-3--------------5-5-5-5-5-5-5-5----------------|
E------------------------------3-3-3-3-3-3-3-3----------------|
         Nothing left to prove        And now it's time to-

Guitar 2
E-------8------------------------------15---------------------|
B-----8--------------------------13-15------------------------|
G---5---------------------------------------------------------|
D-------------------------------------------------------------|
A-------------------------------------------------------------|
E-------------------------------------------------------------|

Guitar 1
E---------------------------------------------------------|
B---------------------------------------------------------|
G---------------------------2--------------------------5--|
D-3-3-3-3-3-3-3-3-----------2---5-5-5-5----------------5--|
A-3-3-3-3-3-3-3-3-----------0---5-5-5-5----------------3--|
E-1-1-1-1-1-1-1-1---------------3-3-3-3-------------------|
  Turn and walk away from       What's Left of me and you

Guitar 2
E-----3-5-------------------------------------------------|
B-----------5---------------------------------------------|
G---5---------5-5-----------------------------------------|
D---------------------------------------------------------|
A---------------------------------------------------------|
E---------------------------------------------------------|


PRE-VERSE:
Guitar 1
E-------------------------------------------------------|
B----3---1---0---0h1---3---3---1---0h1---3-1------------|
G--------------------------------------------0----------|
D-------------------------------------------------------|
A--3---3---3---3-----3---3---3---3-----3----------------|
E-------------------------------------------------------|
                               What's left of me and you
Guitar 1
E-------------------------------------------|
B----------0------0--0--------0------0------|
G------0h4---4-----4------0h4---4-----4-----|
D---------5----5-------------5----5---------|
A-----5------------------5------------------|
E--3------------------3---------------------|
                                     Box of-
Guitar 2
E-------------------------------------------|
B-------------------------------------------|
G-----5----4-------------5----4-------------|
D-----X----X-------------X----X-------------|
A-----3----2-------------3----2-------------|
E-------------------------------------------|


VERSE 2:
Guitar 1
E-------------------------------------------------------|
B----3---1---0---0h1---3---3---1---0h1---3-1------------|
G--------------------------------------------0----------|
D-------------------------------------------------------|
A--3---3---3---3-----3---3---3---3-----3----------------|
E-------------------------------------------------------|
 Letters, that old T-shirt still brings me back to you

Guitar 1
E-------------------------------------------|
B----------0------0--0--------0------0------|
G------0h4---4-----4------0h4---4-----4-----|
D---------5----5-------------5----5---------|
A-----5------------------5------------------|
E--3------------------3---------------------|
 A few more hours in a day,
 Not sure what I should do

Guitar 2
E-------------------------------------------|
B-------------------------------------------|
G-----5----4-------------5----4-------------|
D-----X----X-------------X----X-------------|
A-----3----2-------------3----2-------------|
E-------------------------------------------|


PRE-CHORUS:
E--------------------------------------------------|
B--------------------------------------------------|
G--------------------------------------------------|
D--------3---------------------5-------------------|
A--------3---------------------5-------------------|
E--------1---------------------3-------------------|
 There's no one here to blame, this is the only way

E-----------------------------------------------------------|
B-----------------------------------------------------------|
G-----------------------------------------------------------|
D--------3---------------------5----------------------------|
A--------3---------------------5----------------------------|
E--------1---------------------3----------------------------|
 There's nothing left for us to say| It's time to let you go


CHORUS:
E-------------------------------------------------------------|
B-------------------------------------------------------------|
G-5-5-5-5-5-5-5-5---------------------------------------------|
D-5-5-5-5-5-5-5-5--------------5-5-5-5-5-5-5-5----------------|
A-3-3-3-3-3-3-3-3--------------5-5-5-5-5-5-5-5----------------|
E------------------------------3-3-3-3-3-3-3-3----------------|
        It's what we have to do      It's time to give this up

Guitar 2
E-------8----------------------------7------------------------|
B-----8-------------------------------------------------------|
G---5----------------------------5-7--------------------------|
D-------------------------------------------------------------|
A-------------------------------------------------------------|
E-------------------------------------------------------------|

Guitar 1
E-----------------------------------------------------------------|
B-----------------------------------------------------------------|
G-----------------------------------------------------------------|
D-3-3-3-3-3-3-3-3----------------5-5-5-5-5-5-5-5------------------|
A-3-3-3-3-3-3-3-3----------------5-5-5-5-5-5-5-5------------------|
E-1-1-1-1-1-1-1-1----------------3-3-3-3-3-3-3-3------------------|
        I think that we both knew      There's nothing left to say

Guitar 2
E-----3-5----------------------------7------------------------|
B-------------------------------------------------------------|
G---5----------------------------5-7--------------------------|
D-------------------------------------------------------------|
A-------------------------------------------------------------|
E-------------------------------------------------------------|

Guitar 1
E-------------------------------------------------------------|
B-------------------------------------------------------------|
G-5-5-5-5-5-5-5-5---------------------------------------------|
D-5-5-5-5-5-5-5-5--------------5-5-5-5-5-5-5-5----------------|
A-3-3-3-3-3-3-3-3--------------5-5-5-5-5-5-5-5----------------|
E------------------------------3-3-3-3-3-3-3-3----------------|
         Nothing left to prove        And now it's time to-

Guitar 2
E-------8------------------------------15---------------------|
B-----8--------------------------13-15------------------------|
G---5---------------------------------------------------------|
D-------------------------------------------------------------|
A-------------------------------------------------------------|
E-------------------------------------------------------------|

Guitar 1
E--------------------------------------------------------|
B--------------------------------------------------------|
G---------------------------2----------------------------|
D-3-3-3-3-3-3-3-3-----------2---5-5-5-5------------------|
A-3-3-3-3-3-3-3-3-----------0---5-5-5-5------------------|
E-1-1-1-1-1-1-1-1---------------3-3-3-3------------------|
  Turn and walk away from       What's Left of me and you

Guitar 2
E-----3-5-------------------------------------------------|
B-----------5---------------------------------------------|
G---5---------5-5-----------------------------------------|
D---------------------------------------------------------|
A---------------------------------------------------------|
E---------------------------------------------------------|

BRIDGE:
Guitar 1
E----------------------------------------------------|
B----------------------------------------------------|
G----------------------------------------------------|
D-3-3-3-3-3-3-3-------------------5-5-5-5-5-5-5-5----|
A-3-3-3-3-3-3-3-------------------5-5-5-5-5-5-5-5----|
E-1-1-1-1-1-1-1-------------------3-3-3-3-3-3-3-3----|
      You were the best thing I'll ever give up

Guitar 2
E----------------------------------------------------------------------|
B-13b-----------------------------101010-8-8-8-6-6-6-5-5-5-3-3-3-5-5-5-|
G----------------------------------------------------------------------|
D----------------------------------------------------------------------|
A----------------------------------------------------------------------|
E----------------------------------------------------------------------|
                                                                 And it's-
Guitar 1
E----------------------------------------------------|
B----------------------------------------------------|
G---------------------------2-2-2-2------------------|
D-3-3-3-3-3-3-3-3-----------2-2-2-2-----5-5-5-5-5----|
A-3-3-3-3-3-3-3-3-----------0-0-0-0-----5-5-5-5-5----|
E-1-1-1-1-1-1-1-1-----------------------3-3-3-3-3----|
 -Hard to see the truth                Love
                  When you think you're still in

Guitar 2
E----------------------------------------------------------|
B-----------------------5--3-3-3-3-3-3-3-3-1-1-1-1-0-0-0-0-|
G----------------------------------------------------------|
D----------------------------------------------------------|
A----------------------------------------------------------|
E----------------------------------------------------------|

Guitar 1
E-----------------------------------------------------|
B-----------------------------------------------------|
G-----------------------------------------------------|
D-3-3-3-3-3-3-3-3------------------5-5-5-5-5-5-5-5----|
A-3-3-3-3-3-3-3-3------------------5-5-5-5-5-5-5-5----|
E-1-1-1-1-1-1-1-1------------------3-3-3-3-3-3-3-3----|
  The only way to get on with my life, is to say-

Guitar 2
E----------------------------------------------------------------------|
B-13b-----------------------------101010-8-8-8-6-6-6-5-5-5-3-3-3-5-5-5-|
G----------------------------------------------------------------------|
D----------------------------------------------------------------------|
A----------------------------------------------------------------------|
E----------------------------------------------------------------------|

Guitar 1
E----------------------------------------------------|
B----------------------------------------------------|
G----------------------------------------------------|
D-3-3-3-3-3-3-3-------------------5-5-5-5-5-5-5-5----|
A-3-3-3-3-3-3-3-------------------5-5-5-5-5-5-5-5----|
E-1-1-1-1-1-1-1-------------------3-3-3-3-3-3-3-3----|
  Goodbye,                 So goodbye   It's time to let you go-

Guitar 2
E------------------------------|
B-5-----5---3---1-----0-----1--|
G------------------------------|
D------------------------------|
A------------------------------|
E------------------------------|


CHORUS:
E-------------------------------------------------------------|
B-------------------------------------------------------------|
G-5-5-5-5-5-5-5-5---------------------------------------------|
D-5-5-5-5-5-5-5-5--------------5-5-5-5-5-5-5-5----------------|
A-3-3-3-3-3-3-3-3--------------5-5-5-5-5-5-5-5----------------|
E------------------------------3-3-3-3-3-3-3-3----------------|
        It's what we have to do      It's time to give this up

Guitar 2
E-------8----------------------------7------------------------|
B-----8-------------------------------------------------------|
G---5----------------------------5-7--------------------------|
D-------------------------------------------------------------|
A-------------------------------------------------------------|
E-------------------------------------------------------------|

Guitar 1
E-----------------------------------------------------------------|
B-----------------------------------------------------------------|
G-----------------------------------------------------------------|
D-3-3-3-3-3-3-3-3----------------5-5-5-5-5-5-5-5------------------|
A-3-3-3-3-3-3-3-3----------------5-5-5-5-5-5-5-5------------------|
E-1-1-1-1-1-1-1-1----------------3-3-3-3-3-3-3-3------------------|
        I think that we both knew      There's nothing left to say

Guitar 2
E-----3-5----------------------------7------------------------|
B-------------------------------------------------------------|
G---5----------------------------5-7--------------------------|
D-------------------------------------------------------------|
A-------------------------------------------------------------|
E-------------------------------------------------------------|

Guitar 1
E-------------------------------------------------------------|
B-------------------------------------------------------------|
G-5-5-5-5-5-5-5-5---------------------------------------------|
D-5-5-5-5-5-5-5-5--------------5-5-5-5-5-5-5-5----------------|
A-3-3-3-3-3-3-3-3--------------5-5-5-5-5-5-5-5----------------|
E------------------------------3-3-3-3-3-3-3-3----------------|
         Nothing left to prove        And now it's time to-

Guitar 2
E-------8------------------------------15---------------------|
B-----8--------------------------13-15------------------------|
G---5---------------------------------------------------------|
D-------------------------------------------------------------|
A-------------------------------------------------------------|
E-------------------------------------------------------------|

Guitar 1
E--------------------------------------------------------|
B--------------------------------------------------------|
G---------------------------2----------------------------|
D-3-3-3-3-3-3-3-3-----------2---5-5-5-5------------------|
A-3-3-3-3-3-3-3-3-----------0---5-5-5-5------------------|
E-1-1-1-1-1-1-1-1---------------3-3-3-3------------------|
  Turn and walk away from       What's Left of me and you

Guitar 2
E-----3-5---------------------3-5-------------------------|
B-----------5-----------------------5---------------------|
G---5---------5-5-----------5---------5-5-----------------|
D---------------------------------------------------------|
A---------------------------------------------------------|
E---------------------------------------------------------|


OUT-CHORUS:
Guitar 1
E--------------------------------------------------|
B--------------------------------------------------|
G-5-5-5-5-5-5-5-5----------------------------------|
D-5-5-5-5-5-5-5-5---5-5-5-5-5-5-5-5----------------|
A-3-3-3-3-3-3-3-3---5-5-5-5-5-5-5-5----------------|
E-------------------3-3-3-3-3-3-3-3----------------|
                Whoa         What's left of me and you

Guitar 2
E---------------------------------------------------|
B-------------17~15~------------15~-----------------|
G----------------------------------17~--------------|
D---------------------------------------------------|
A---------------------------------------------------|
E---------------------------------------------------|

Guitar 1
E----------------------------------|
B----------------------------------|
G-------------------2--------------|
D-3-3-3-3-3-3-3-3---2---5-5-5-5----|
A-3-3-3-3-3-3-3-3---0---5-5-5-5----|
E-1-1-1-1-1-1-1-1-------3-3-3-3----|


Guitar 2
E----------------------------------------------------------|
B----------------------------------------------------------|
G--------------17--14--14--12-14--12-14--------------------|
D-----------17--------------------------15-12-14-10-12-10--|
A----------------------------------------------------------|
E----------------------------------------------------------|


OUTRO:
E-----------------------------------------------|
B----3---1---0---0h1---3---3---1---0h1---3-1----|
G--------------------------------------------0--|
D-----------------------------------------------|
A--3---3---3---3-----3---3---3---3-----3--------|
E-----------------------------------------------|
 A few pictures, two tickets, from a trip
 We took last year 

E--------------------------------------------|
B----------0------0--0---------0-------------|
G------0h4---4-----4------0h4----------------|
D---------5----5-------------5---------------|
A-----5------------------5-------------------|
E--3------------------3----------------------|
 A handful of memories, some still seem clear


THANK YOU!


Keys:
h = hammer-on
X = muted string
~ = vibrato
Tap to rate this tab
# A B C D E F G H I J K L M N O P Q R S T U V W X Y Z