Song name
# A B C D E F G H I J K L M N O P Q R S T U V W X Y Z

3 Doors Down - When Im Gone tab

     E  S S S  S S S S  S S S  S S E     S S S S  S S E  H         
E||-----------------------------------|---------------------------|
B||---------0h-1-----1p-0---0h-1------|--------0h-1---3--L--------|
G||-------2------2--------2------2----|------0------0-0--L--------|
D||-----2----------2---------------2--|----2--------0-0--L--------|
A||--0--------------------------------|--3------------2--L--------|
E||-----------------------------------|---------------3--L--------|


  E  S S S  S S S S S S S S S S S    S S S S  S S E  Q    S  S E   
----------------------------------|-------------------------------|
---------0h-1-----3-----1-----0---|--------0h-1---3--L----1p-0----|
-------2------2-----2-----2-----0-|------0------0-0--L---------0--|
-----2----------2-----2-----2-----|----2----------0--L------------|
--0-------------------------------|--3------------2--L------------|
----------------------------------|---------------3--L------------|


  Q    S S E  Q.     S S    E  S S E  E  H           Q    S S E  Q.     S S  
--0----0-----------------|------------------------|--0----0-----------------|
--0------0---------------|-------1-L--3--L--------|--0------0---------------|
--2--------2--L----------|-------0-L--0--L--------|--2--------2--L----------|
--2----------------------|-----2------0--L--------|--2----------------------|
--0------------------0-2-|--3---------2--L--------|--0------------------0-2-|
-------------------------|------------3--L--------|-------------------------|


  E  S S E  E  H           Q    S S E  Q.     S S    E  S S E  E  H         
------------------------|--0----0-----------------|------------------------|
-------1-L--3--L--------|--0------0---------------|-------1-L--3--L--------|
-------0-L--0--L--------|--2--------2--L----------|-------0-L--0--L--------|
-----2------0--L--------|--2----------------------|-----2------0--L--------|
--3---------2--L--------|--0------------------0-2-|--3---------2--L--------|
------------3--L--------|-------------------------|------------3--L--------|


  Q    S S E  Q.     S S    E  S S E  E  H           E  S S S  E  S H         
--0----0-----------------|------------------------|---------------0-L--------|
--0------0---------------|-------1-L--3--L--------|---------0h-1--3-L--------|
--2--------2--L----------|-------0-L--0--L--------|-------2------------------|
--2----------------------|-----2------0--L--------|-----2--------------------|
--0------------------0-2-|--3---------2--L--------|--0-----------------------|
-------------------------|------------3--L--------|--------------------------|


  E  S S S  E  S H           E  S S S  E  S H         
--------------------------|---------------0-L--------|
---------0h-1--0-L--------|---------0h-1--3-L--------|
-------2-------2-L--------|-------2------------------|
-----2--------------------|-----2--------------------|
--0-----------------------|--0-----------------------|
--------------------------|--------------------------|


  E  S S S  S S S E  E  S S S S    E.  S S S E  S S S S S S S S  
--------------------------------|-------------------------------|
---------0h-1-------------------|-------------------------------|
-------2------2---------4-5-4---|--2---2-----2--L-2-----4-5-----|
-----2----------2-L-----4-5-4---|--2---2-----2--L-2-----4-5-----|
--0---------------------2-3-2---|--0---0-0-0-0--L-0-0-0-2-3-2---|
------------------------------0-|-----------------------------0-|


  E.  S S S E  S S S S   S   S   S   S    E.  S S S E  S S S S S S S S  
---------------------------------------|-------------------------------|
---------------------------------------|-------------------------------|
--7---7--------------------------------|--2---2-----2--L-2-----4-5-----|
--7---7-----5--L-5---------------------|--2---2-----2--L-2-----4-5-----|
--5---5-----5--L-5-----<>5-<>5-<>5-<>5-|--0---0-0-0-0--L-0-0-0-2-3-2---|
--------0-0-3--L-3-0-0-----------------|-----------------------------0-|


  E.  S S S E  S S S S   S   S   S   S    E.  S S S E  S S S S S S S S  
---------------------------------------|-------------------------------|
---------------------------------------|-------------------------------|
--7---7--------------------------------|--2---2-----2--L-2-----4-5-----|
--7---7-----5--L-5---------------------|--2---2-----2--L-2-----4-5-----|
--5---5-----5--L-5-----<>5-<>5-<>5-<>5-|--0---0-0-0-0--L-0-0-0-2-3-2---|
--------0-0-3--L-3-0-0-----------------|-----------------------------0-|


  E.  S S S E  S S S S   S   S   S   S    E.  S S S E  S S S S S S S S  
---------------------------------------|-------------------------------|
---------------------------------------|-------------------------------|
--7---7--------------------------------|--2---2-----2--L-2-----4-5-----|
--7---7-----5--L-5---------------------|--2---2-----2--L-2-----4-5-----|
--5---5-----5--L-5-----<>5-<>5-<>5-<>5-|--0---0-0-0-0--L-0-0-0-2-3-2---|
--------0-0-3--L-3-0-0-----------------|-----------------------------0-|


  E.  S S S E  S S S S   S   S   S   S    H.           E  S S  
---------------------------------------|----------------------|
---------------------------------------|----------------------|
--7---7--------------------------------|--2------------L------|
--7---7-----5--L-5---------------------|--2------------L------|
--5---5-----5--L-5-----<>5-<>5-<>5-<>5-|--0------------L--0-2-|
--------0-0-3--L-3-0-0-----------------|----------------------|


  E.  S S S E  H           H.           E  S S    E.  S S S E  H         
------------------------|----------------------|------------------------|
------------------------|----------------------|------------------------|
--5---5-----------------|--2------------L------|--5---5-----------------|
--5---5-----5--L--------|--2------------L------|--5---5-----5--L--------|
--3---3-----5--L--------|--0------------L--0-2-|--3---3-----5--L--------|
--------0-0-3--L--------|----------------------|--------0-0-3--L--------|


  H.           E  S S    E  S S E  E  H           Q    S S E  Q.     S S  
----------------------|------------------------|--0----0-----------------|
----------------------|-------1-L--3--L--------|--0------0---------------|
--2------------L------|-------0-L--0--L--------|--2--------2--L----------|
--2------------L------|-----2------0--L--------|--2----------------------|
--0------------L--0-2-|--3---------2--L--------|--0------------------0-2-|
----------------------|------------3--L--------|-------------------------|


  E  S S E  E  H           Q    S S E  Q.     S S    E  S S E  E  H         
------------------------|--0----0-----------------|------------------------|
-------1-L--3--L--------|--0------0---------------|-------1-L--3--L--------|
-------0-L--0--L--------|--2--------2--L----------|-------0-L--0--L--------|
-----2------0--L--------|--2----------------------|-----2------0--L--------|
--3---------2--L--------|--0------------------0-2-|--3---------2--L--------|
------------3--L--------|-------------------------|------------3--L--------|


  H.           E  S S    E  S S E  E  E.  S S S S S  
--0------------L------|-----------------------------|
--0------------L------|-------1-L--3--L-------------|
--2------------L------|-------0-L--0--L-----4-5-4---|
--2------------L------|-----2------0--L-----4-5-4---|
--0------------L--0-2-|--3---------2--L-----2-3-2---|
----------------------|------------3--L---0-------0-|


  E.  S S S E  S S S S S S S S    E.  S S S E  S S S S   S   S   S   S  
-------------------------------|---------------------------------------|
-------------------------------|---------------------------------------|
--2---2-----2--L-2-----4-5-----|--7---7--------------------------------|
--2---2-----2--L-2-----4-5-----|--7---7-----5--L-5---------------------|
--0---0-0-0-0--L-0-0-0-2-3-2---|--5---5-----5--L-5-----<>5-<>5-<>5-<>5-|
-----------------------------0-|--------0-0-3--L-3-0-0-----------------|


  E.  S S S E  S S S S S S S S    E.  S S S E  S S S S   S   S   S   S  
-------------------------------|---------------------------------------|
-------------------------------|---------------------------------------|
--2---2-----2--L-2-----4-5-----|--7---7--------------------------------|
--2---2-----2--L-2-----4-5-----|--7---7-----5--L-5---------------------|
--0---0-0-0-0--L-0-0-0-2-3-2---|--5---5-----5--L-5-----<>5-<>5-<>5-<>5-|
-----------------------------0-|--------0-0-3--L-3-0-0-----------------|


  E.  S S S E  S S S S S S S S    E.  S S S E  S S S S   S   S   S   S  
-------------------------------|---------------------------------------|
-------------------------------|---------------------------------------|
--2---2-----2--L-2-----4-5-----|--7---7--------------------------------|
--2---2-----2--L-2-----4-5-----|--7---7-----5--L-5---------------------|
--0---0-0-0-0--L-0-0-0-2-3-2---|--5---5-----5--L-5-----<>5-<>5-<>5-<>5-|
-----------------------------0-|--------0-0-3--L-3-0-0-----------------|


  E.  S S S E  S S S S S S S S    E.  S S S E  S S S S   S   S   S   S  
-------------------------------|---------------------------------------|
-------------------------------|---------------------------------------|
--2---2-----2--L-2-----4-5-----|--7---7--------------------------------|
--2---2-----2--L-2-----4-5-----|--7---7-----5--L-5---------------------|
--0---0-0-0-0--L-0-0-0-2-3-2---|--5---5-----5--L-5-----<>5-<>5-<>5-<>5-|
-----------------------------0-|--------0-0-3--L-3-0-0-----------------|


                                                           |--3--|   
  E  S S S S S S S S S S S S S S    E  S S S S S S S S S S E  E  E   
---------------------------------|----------------------------------|
---------------------------------|----------------------------------|
--2------4-5-----5-7-----7-9-7-9-|--2------4-5-----5-7--------------|
--2------4-5-----5-7-----7-9-7-9-|--2------4-5-----5-7--------------|
--0--0-0-2-3-----3-5-----5-7-5-5-|--0--0-0-2-3-----3-5-----5--4--5--|
---------2-3-0-0-3-5-0-0-5-7-5-5-|---------2-3-0-0-3-5-0-0-3--2--3--|


                                                           |--3--|   
  E  S S S S S S S S S S S S S S    E  S S S S S S S S S S E  E  E   
---------------------------------|----------------------------------|
---------------------------------|----------------------------------|
--2------4-5-----5-7-----7-9-7---|--2------4-5-----5-7--------------|
--2------4-5-----5-7-----7-9-7---|--2------4-5-----5-7--------------|
--0--0-0-2-3-----3-5-----5-7-5---|--0--0-0-2-3-----3-5-----5--4--5--|
---------2-3-0-0-3-5-0-0-5-7-5-0-|---------2-3-0-0-3-5-0-0-3--2--3--|


  E  S S S  E  S E  E  E  E     E  S S S  E  S H         
--------------------0--------|--------------------------|
---------0h-1--3-L-----3-----|---------0h-1--0-L--------|
-------2------------------2--|-------2-------2-L--------|
-----2-----------------------|-----2--------------------|
--0--------------------------|--0-----------------------|
-----------------------------|--------------------------|


  E  S S S  E  S E  E  E  E     E  S S S  E  S H         
--------------------0--------|--------------------------|
---------0h-1--3-L-----3-----|---------0h-1--0-L--------|
-------2------------------2--|-------2-------2-L--------|
-----2-----------------------|-----2--------------------|
--0--------------------------|--0-----------------------|
-----------------------------|--------------------------|


  E.  S S S E  S S S S S S S S    E.  S S S E  S S S S S S S S  
-------------------------------|-------------------------------|
-------------------------------|-------------------------------|
--2---2-----2--L-2-----4-5-----|--7---7----------------4-5-4---|
--2---2-----2--L-2-----4-5-----|--7---7-----5--L-5-----4-5-4---|
--0---0-0-0-0--L-0-0-0-2-3-----|--5---5-----5--L-5-----2-3-2---|
---------------------------0-0-|--------0-0-3--L-3-0-0-------0-|


  E.  S S S E  S S S S S S S S    E.  S S S E  S S S S S S S S  
-------------------------------|-------------------------------|
-------------------------------|-------------------------------|
--2---2-----2--L-2-----4-5-----|--7---7----------------4-5-4---|
--2---2-----2--L-2-----4-5-----|--7---7-----5--L-5-----4-5-4---|
--0---0-0-0-0--L-0-0-0-2-3-----|--5---5-----5--L-5-----2-3-2---|
---------------------------0-0-|--------0-0-3--L-3-0-0-------0-|


  E.  S S S E  S S S S S S S S    E.  S S S E  S S S S S S S S  
-------------------------------|-------------------------------|
-------------------------------|-------------------------------|
--2---2-----2--L-2-----4-5-----|--7---7----------------4-5-4---|
--2---2-----2--L-2-----4-5-----|--7---7-----5--L-5-----4-5-4---|
--0---0-0-0-0--L-0-0-0-2-3-----|--5---5-----5--L-5-----2-3-2---|
---------------------------0-0-|--------0-0-3--L-3-0-0-------0-|


  E.  S S S E  S S S S S S S S    E.  S S S E  S S S S S S S S  
-------------------------------|-------------------------------|
-------------------------------|-------------------------------|
--2---2-----2--L-2-----4-5-----|--7---7----------------4-5-4---|
--2---2-----2--L-2-----4-5-----|--7---7-----5--L-5-----4-5-4---|
--0---0-0-0-0--L-0-0-0-2-3-----|--5---5-----5--L-5-----2-3-2---|
---------------------------0-0-|--------0-0-3--L-3-0-0-------0-|


  E.  S S S E  S S S S S S S S    E.  S S S E  S S S S   S   S   S   S  
-------------------------------|---------------------------------------|
-------------------------------|---------------------------------------|
--2---2-----2--L-2-----4-5-----|--7---7--------------------------------|
--2---2-----2--L-2-----4-5-----|--7---7-----5--L-5---------------------|
--0---0-0-0-0--L-0-0-0-2-3-2---|--5---5-----5--L-5-----<>5-<>5-<>5-<>5-|
-----------------------------0-|--------0-0-3--L-3-0-0-----------------|


  E.  S S S E  S S S S S S S S    E.  S S S E  S S S S   S   S   S   S  
-------------------------------|---------------------------------------|
-------------------------------|---------------------------------------|
--2---2-----2--L-2-----4-5-----|--7---7--------------------------------|
--2---2-----2--L-2-----4-5-----|--7---7-----5--L-5---------------------|
--0---0-0-0-0--L-0-0-0-2-3-2---|--5---5-----5--L-5-----<>5-<>5-<>5-<>5-|
-----------------------------0-|--------0-0-3--L-3-0-0-----------------|


  E.  S S S E  S S S S S S S S    E.  S S S E  S S S S   S   S   S   S  
-------------------------------|---------------------------------------|
-------------------------------|---------------------------------------|
--2---2-----2--L-2-----4-5-----|--7---7--------------------------------|
--2---2-----2--L-2-----4-5-----|--7---7-----5--L-5---------------------|
--0---0-0-0-0--L-0-0-0-2-3-2---|--5---5-----5--L-5-----<>5-<>5-<>5-<>5-|
-----------------------------0-|--------0-0-3--L-3-0-0-----------------|


  E.  S S S E  S S S S S S S S    E.  S S S E  S S S S   S   S   S   S  
-------------------------------|---------------------------------------|
-------------------------------|---------------------------------------|
--2---2-----2--L-2-----4-5-----|--7---7--------------------------------|
--2---2-----2--L-2-----4-5-----|--7---7-----5--L-5---------------------|
--0---0-0-0-0--L-0-0-0-2-3-2---|--5---5-----5--L-5-----<>5-<>5-<>5-<>5-|
-----------------------------0-|--------0-0-3--L-3-0-0-----------------|


  H.           E  S S    E.  S S S E  H           H.           E  S S  
----------------------|------------------------|----------------------|
----------------------|------------------------|----------------------|
--2------------L------|--5---5-----------------|--2------------L------|
--2------------L------|--5---5-----5--L--------|--2------------L------|
--0------------L--0-2-|--3---3-----5--L--------|--0------------L--0-2-|
----------------------|--------0-0-3--L--------|----------------------|


  E.  S S S E  H           H.           E  S S    E.  S S S E  H         
------------------------|----------------------|------------------------|
------------------------|----------------------|------------------------|
--5---5-----------------|--2------------L------|--5---5-----------------|
--5---5-----5--L--------|--2------------L------|--5---5-----5--L--------|
--3---3-----5--L--------|--0------------L--0-2-|--3---3-----5--L--------|
--------0-0-3--L--------|----------------------|--------0-0-3--L--------|


  H.           E  S S    E.  S S S E  H           W                 
----------------------|------------------------|-------------------|
----------------------|------------------------|-------------------|
--2------------L------|--5---5-----------------|--2----------------|
--2------------L------|--5---5-----5--L--------|--2----------------|
--0------------L--0-2-|--3---3-----5--L--------|--0----------------|
----------------------|--------0-0-3--L--------|-------------------|


  W                  
-------------------||
-------------------||
--L----------------||
--L----------------||
--L----------------||
-------------------||




Duration Legend
---------------
W - whole
H - half
Q - quarter
E - 8th
S - 16th
T - 32nd
X - 64th
. - note dotted
|-n-|  - n-tuplets


Tablature Legend
----------------
L - tied note
x - dead note
g - grace note
(n) - ghost note
> - accentuded note
NH - natural harmonic
AH - artificial harmonic
TH - tapped harmonic
SH - semi harmonic
PH - pitch harmonic
h - hammer on
p - pull off
b - bend
br - bendRelease
pb - preBend
pbr - preBendRelease
brb - bendReleaseBend
\n/ - tremolo bar dip
\n - tremolo bar dive
-/n - tremolo bar Release up
/n\ - tremolo bar inverted dip
/n - tremolo bar return
-\n - tremolo bar Release down
S - shift slide
s - legato slide
/ -  slide into from below or out of upwards
\ -  slide into from above or out of downwards
~ - vibrato
W - wide vibrato
tr - trill
TP - tremolo picking
T - tapping
S - slap
P - pop
< - fade in
^ - brush up
v - brush down
Tap to rate this tab
# A B C D E F G H I J K L M N O P Q R S T U V W X Y Z