Song name
# A B C D E F G H I J K L M N O P Q R S T U V W X Y Z

3 Doors Down - One Light tab

2013

Tabbed by Kyle Casey
EM: eracman920@gmail.com

Tuning: Standard

E-------|
B--17v--|
G-------|
D-------|
A-------|
E-------|


Intro:
Guitar 1
E-------------------------------------------|
B-------------------------------------------|
G-------------------------------------------|
D-2s4--4--2s4--4--2s4--2s4--4--2s4--4-------|
A-2s4--4--2s4--4--2s4--2s4--4--2s4--4--3333-|
E-0-2--2--0-2--2--0-2--0-2--2--0-2--2-------|

Guitar 2
E---------0---------------------------------|
B--------------0----------------------------|
G------6------------------------------------|
D-4--------------------6b6b6b6b6b6b6b6------|
A-------------------------------------------|
E-------------------------------------------|

Guitar 1
E-------------------------------------|
B-------------------------------------|
G-------------------------------44-44-|
D-2s4--4--2s4--4--2s4--2--2--2--44-44-|
A-2s4--4--2s4--4--2s4--2--2--2--22-22-|
E-0-2--2--0-2--2--0-2--0--0--0--------|

Guitar 2
E---------0----------------------------|
B--------------0-----------------------|
G------6-------------------------------|
D-4------------------------------------|
A--------------------------------------|
E--------------------------------------|

Verse:
Guitar 1
E-------------------------------------------|
B-------------------------------------------|
G-------------------------------------------|
D-2s4--4--2s4--4--2s4--2s4--4--2s4--4-------|
A-2s4--4--2s4--4--2s4--2s4--4--2s4--4--3333-|
E-0-2--2--0-2--2--0-2--0-2--2--0-2--2-------|
  . .  .  . .  .  . .  . .  .  . .  .
  Standing humble-

Guitar 2
E--------------------------------------------|
B--------------------------------------------|
G--------------------------------------4b4b4-|
D--------------------------------------------|
A--------------------------------------------|
E--------------------------------------------|

Guitar 1
E-------------------------------------|
B-------------------------------------|
G-------------------------------44-44-|
D-2s4--4--2s4--4--2s4--2--2--2--44-44-|
A-2s4--4--2s4--4--2s4--2--2--2--22-22-|
E-0-2--2--0-2--2--0-2--0--0--0--------|
  . .  .  . .  .  . .  
  Silent armies-

Guitar 2
E----------------------------------------|
B----------------------------------------|
G-----------------------------------4b4b4|
D----------------------------------------|
A----------------------------------------|
E----------------------------------------|


Guitar 1
E-------------------------------------------|
B-------------------------------------------|
G-------------------------------------------|
D-2s4--4--2s4--4--2s4--2s4--4--2s4--4-------|
A-2s4--4--2s4--4--2s4--2s4--4--2s4--4--3333-|
E-0-2--2--0-2--2--0-2--0-2--2--0-2--2-------|
  . .  .  . .  .  . .  . .  .  . .  .
  Seated firmly-

Guitar 2
E--------------------------------------------|
B--------------------------------------------|
G--------------------------------------4b4b4-|
D--------------------------------------------|
A--------------------------------------------|
E--------------------------------------------|

Guitar 1
E-------------------------------------------|
B-------------------------------------------|
G------------------------------------6-4-2--|
D-2s4--4--2s4--4--2s4--2s4--4--2s4-2-6-4-2--|
A-2s4--4--2s4--4--2s4--2s4--4--2s4-2-4-2-0--|
E-0-2--2--0-2--2--0-2--0-2--2--0-2-0--------|
  . .  .  . .  .  . .  . .  .  . . .
  Never broken-

Chorus:
E-------------------|
B-------------------|
G-7-7-7-7-----------|
D-7-7-7-7---7-7-7-7-|
A-5-5-5-5---7-7-7-7-|
E-----------5-5-5-5-|
      Come with me-

E-------------------|
B-------------------|
G-4--4--------------|
D-4--4--4--4--X-4-4-|
A-2--2--4--4--X-4-4-|
E-------2--2--X-2-2-|
  Take this world-

E-------------------|
B-------------------|
G-7-7-7-7-----------|
D-7-7-7-7---7-7-7-7-|
A-5-5-5-5---7-7-7-7-|
E-----------5-5-5-5-|
      We'll give this-

E-------------------|
B-------------------|
G-------------------|
D-2--2-X-2--2-X-2-2-|
A-2--2-X-2--2-X-2-2-|
E-0--0-X-0--0-X-0-0-|
  More than we-

E-------------------|
B-------------------|
G-7-7-7-7-----------|
D-7-7-7-7---7-7-7-7-|
A-5-5-5-5---7-7-7-7-|
E-----------5-5-5-5-|
      We'll see this-

E-------------------|
B-------------------|
G-4--4--------------|
D-4--4--4--4--X-4-4-|
A-2--2--4--4--X-4-4-|
E-------2--2--X-2-2-|
  The eyes-

E---------------------------------|
B---------------------------------|
G-----------------6-6-6-6-6-6-6-6-|
D-5-5-5-5-5-5-5-5-6-6-6-6-6-6-6-6-|
A-5-5-5-5-5-5-5-5-4-4-4-4-4-4-4-4-|
E-3-3-3-3-3-3-3-3-----------------|
  If we could-          One light-

Guitar 1
E-------------------------------------------|
B-------------------------------------------|
G-------------------------------------------|
D-2s4--4--2s4--4--2s4--2s4--4--2s4--4-------|
A-2s4--4--2s4--4--2s4--2s4--4--2s4--4--3333-|
E-0-2--2--0-2--2--0-2--0-2--2--0-2--2-------|
                            Just one light-
Guitar 2
E---------0---------------------------------|
B--------------0----------------------------|
G------6------------------------------------|
D-4--------------------6b6b6b6b6b6b6b6------|
A-------------------------------------------|
E-------------------------------------------|

Guitar 1
E-------------------------------------|
B-------------------------------------|
G-------------------------------44-44-|
D-2s4--4--2s4--4--2s4--2--2--2--44-44-|
A-2s4--4--2s4--4--2s4--2--2--2--22-22-|
E-0-2--2--0-2--2--0-2--0--0--0--------|

Guitar 2
E---------0----------------------------|
B--------------0-----------------------|
G------6-------------------------------|
D-4------------------------------------|
A--------------------------------------|
E--------------------------------------|

Verse 2:
Guitar 1
E-------------------------------------------|
B-------------------------------------------|
G-------------------------------------------|
D-2s4--4--2s4--4--2s4--2s4--4--2s4--4-------|
A-2s4--4--2s4--4--2s4--2s4--4--2s4--4--3333-|
E-0-2--2--0-2--2--0-2--0-2--2--0-2--2-------|
  . .  .  . .  .  . .  . .  .  . .  .
  Walls will crumble-

Guitar 2
E--------------------------------------------|
B--------------------------------------------|
G--------------------------------------4b4b4-|
D--------------------------------------------|
A--------------------------------------------|
E--------------------------------------------|

Guitar 1
E-------------------------------------|
B-------------------------------------|
G----------------------------9--44-44-|
D-2s4--4--2s4--4--2s4--2--2--9--44-44-|
A-2s4--4--2s4--4--2s4--2--2--7--22-22-|
E-0-2--2--0-2--2--0-2--0--0-----------|
  . .  .  . .  .  . . 
  All we know- 

Guitar 2
E----------------------------------------|
B----------------------------------------|
G-----------------------------------4b4b4|
D----------------------------------------|
A----------------------------------------|
E----------------------------------------|

Guitar 1
E-------------------------------------------|
B-------------------------------------------|
G-------------------------------------------|
D-2s4--4--2s4--4--2s4--2s4--4--2s4--4-------|
A-2s4--4--2s4--4--2s4--2s4--4--2s4--4--3333-|
E-0-2--2--0-2--2--0-2--0-2--2--0-2--2-------|
  . .  .  . .  .  . .  . .  .  . .  .
  We'll fight-

Guitar 1
E-------------------------------------------|
B-------------------------------------------|
G------------------------------------6-4-2--|
D-2s4--4--2s4--4--2s4--2s4--4--2s4-2-6-4-2--|
A-2s4--4--2s4--4--2s4--2s4--4--2s4-2-4-2-0--|
E-0-2--2--0-2--2--0-2--0-2--2--0-2-0--------|
  . .  .  . .  .  . .  . .  .  . . .
  Angels of war-

Chorus:
E-------------------|
B-------------------|
G-7-7-7-7-----------|
D-7-7-7-7---7-7-7-7-|
A-5-5-5-5---7-7-7-7-|
E-----------5-5-5-5-|
      Come with me-

E-------------------|
B-------------------|
G-4--4--------------|
D-4--4--4--4--X-4-4-|
A-2--2--4--4--X-4-4-|
E-------2--2--X-2-2-|
  Take this world-

E-------------------|
B-------------------|
G-7-7-7-7-----------|
D-7-7-7-7---7-7-7-7-|
A-5-5-5-5---7-7-7-7-|
E-----------5-5-5-5-|
      We'll give this-

E-------------------|
B-------------------|
G-------------------|
D-2--2-X-2--2-X-2-2-|
A-2--2-X-2--2-X-2-2-|
E-0--0-X-0--0-X-0-0-|
  More than we-

E-------------------|
B-------------------|
G-7-7-7-7-----------|
D-7-7-7-7---7-7-7-7-|
A-5-5-5-5---7-7-7-7-|
E-----------5-5-5-5-|
      We'll see this-

E-------------------|
B-------------------|
G-4--4--------------|
D-4--4--4--4--X-4-4-|
A-2--2--4--4--X-4-4-|
E-------2--2--X-2-2-|
  The eyes-

E---------------------------------|
B---------------------------------|
G-----------------6-6-6-6-6-6-6-6-|
D-5-5-5-5-5-5-5-5-6-6-6-6-6-6-6-6-|
A-5-5-5-5-5-5-5-5-4-4-4-4-4-4-4-4-|
E-3-3-3-3-3-3-3-3-----------------|
  If we could-          One light-

Solo:
Guitar 1
E----------------------------------------|
B----------------------------------------|
G----------------------------------------|
D-2h4-----------------2h4----------------|
A------2h4--0h2------------2h4--0h2------|
E----------------0h2-----------------0h2-|
                             Just one light to shine!
Guitar 2
E-----------12---------------------------------|
B-12---14--------12----------------------------|
G---------------------13b13b13b13b13b13b13b13b-|
D----------------------------------------------|
A----------------------------------------------|
E----------------------------------------------|

Guitar 1
E----------------------------------------|
B----------------------------------------|
G----------------------------------------|
D-2h4-----------------2h4----------------|
A------2h4--0h2------------2h4--0h2------|
E----------------0h2-----------------0h2-|

Guitar 2
E-----------12--------12b12b12b12b12b12b-|
B-12---14--------12---12b12b12b12b12b12b-|
G----------------------------------------|
D----------------------------------------|
A----------------------------------------|
E----------------------------------------|

Guitar 1
E------------------------------------------------------------|
B------------------------------------------------------------|
G------------------------------------------------------------|
D-2h4-----------------2h4-----------------2h4----------------|
A------2h4--0h2------------2h4--0h2------------2h4--0h2------|
E----------------0h2-----------------0h2-----------------0h2-|

Guitar 2
E-12b-|
B-12b-|
G-----| repeatably play till next part
D-----|
A-----|
E-----|

Guitar 1
E-----------------|
B-----------------|
G---------6-6-6-6-|
D-5-5-5-5-6-6-6-6-|
A-5-5-5-5-4-4-4-4-|
E-3-3-3-3---------|

Guitar 2
E---------9-9-9-9-|
B---------9-9-9-9-|
G-12121212--------|
D-12121212--------|
A-10101010--------|
E-----------------|

Chorus 3:
E---------|
B---------|
G-7-------|
D-7-----7-|
A-5-----7-|
E-------5-|
  Come with me-

E-------------------|
B-------------------|
G-4--4--------------|
D-4--4--4--4--X-4-4-|
A-2--2--4--4--X-4-4-|
E-------2--2--X-2-2-|
  Take this world-

E-------------------|
B-------------------|
G-7-7-7-7-----------|
D-7-7-7-7---7-7-7-7-|
A-5-5-5-5---7-7-7-7-|
E-----------5-5-5-5-|
      We'll give this-

E-------------------|
B-------------------|
G-------------------|
D-2--2-X-2--2-X-2-2-|
A-2--2-X-2--2-X-2-2-|
E-0--0-X-0--0-X-0-0-|
  More than we-

E-------------------|
B-------------------|
G-7-7-7-7-----------|
D-7-7-7-7---7-7-7-7-|
A-5-5-5-5---7-7-7-7-|
E-----------5-5-5-5-|
      We'll see this-

E-------------------|
B-------------------|
G-4--4--------------|
D-4--4--4--4--X-4-4-|
A-2--2--4--4--X-4-4-|
E-------2--2--X-2-2-|
  The eyes-

E---------------------------------|
B---------------------------------|
G-----------------6-6-6-6-6-6-6-6-|
D-5-5-5-5-5-5-5-5-6-6-6-6-6-6-6-6-|
A-5-5-5-5-5-5-5-5-4-4-4-4-4-4-4-4-|
E-3-3-3-3-3-3-3-3-----------------|
  If we could-          One light-

Outro:
Guitar 1
E-------------------------------------------|
B-------------------------------------------|
G-------------------------------------------|
D-2s4--4--2s4--4--2s4--2s4--4--2s4--4-------|
A-2s4--4--2s4--4--2s4--2s4--4--2s4--4--3333-|
E-0-2--2--0-2--2--0-2--0-2--2--0-2--2-------|
                            Just one light-
Guitar 2
E---------0---------------------------------|
B--------------0----------------------------|
G------6------------------------------------|
D-4--------------------6b6b6b6b6b6b6b6------|
A-------------------------------------------|
E-------------------------------------------|

Guitar 1
E-------------------------------------|
B-------------------------------------|
G-------------------------------44-44-|
D-2s4--4--2s4--4--2s4--2--2--2--44-44-|
A-2s4--4--2s4--4--2s4--2--2--2--22-22-|
E-0-2--2--0-2--2--0-2--0--0--0--------|

Guitar 2
E---------0----------------------------|
B--------------0-----------------------|
G------6-------------------------------|
D-4------------------------------------|
A--------------------------------------|
E--------------------------------------|

Key:
v = vibrato
b = bend
. = palm mute
X = scratch
h = hammer-on

Thanks!
Tap to rate this tab
# A B C D E F G H I J K L M N O P Q R S T U V W X Y Z