Song name
# A B C D E F G H I J K L M N O P Q R S T U V W X Y Z

3 Doors Down - Kryptonite chords

Highlighted       Show chord diagrams
Band: 3 Doors Down
Song: Kryptonite
Tabbed By: Guenton Brooks

Lick 1:
e|--------------------------------|
B|-------3---------------------0--|
G|-----4---4---0-------0-----2----|
D|---4-------4-------0-----2------|
A|-2---------------2-----0--------|
E|---------------3----------------|

Lick 2:
e|--2--2---2-2-2-2--2---2-2-2-|--3--3---3-3-3-0--0---0-0-0-|
B|--3--3---3-3-3-3--3---3-3-3-|--3--3---3-3-3-0--0---0-0-0-|
G|--4--4---4-4-4-4--4---4-4-4-|--0--0---0-0-0-2--2---2-2-2-|
D|--4--4---4-4-4-4--4---4-4-4-|--0--0---0-0-0-2--2---2-2-2-|
A|--2--2---2-2-2-2--2---2-2-2-|--2--2---2-2-2-0--0---0-0-0-|
E|----------------------------|--3--3---3-3-3--------------|

Lick 3:
e|-----------------------|-----------------------|
B|-----------------------|-----------------------|
G|-----------------------|-----------------------|
D|--9----9----9----9-----|--5----5----7----7-----|
A|--9----9----9----9-----|--5----5----7----7-----|
E|--7-77-7-77-7-77-7-77--|--3-33-3-33-5-55-5-55--|


Intro: Lick 1 (Guitar Only)      Bm G Asus4 x2


Intro: Lick 1 (All Instruments)  Bm G Asus4 x2


Verse 1: Lick 1
Bm                         G                A
I took a walk around the world to ease my troubled mind
Bm                         G              A
I left my body laying somewhere in the sands of time
Bm                               G               A
I watched the world float to the dark side of the moon
Bm                             G   A     
I feel there is nothing I can do,           yeah


Interlude: Lick 2         Bm G Asus4 x2


Verse 2: Lick 1
Bm                                G               A
I watched the world float to the dark side of the moon
Bm                          G             A
After all I knew it had to be something to do with you
Bm                          G            A
I really don't mind what happens now and then
Bm                        G           A
As long as you'll be my friend at the end


Chorus: Lick 3
Bm                       G                A
If I go crazy then will you still call me Superman
Bm                          G              A
If I'm alive and well, will you be there holding my hand
Bm                            G       A     Bm      Bm       G A
I'll keep you by my side with my superhuman might Kryptonite


Interlude: Lick 2         Bm G Asus4 x 2


Verse 3: Lick 1
Bm                                  G              A
You called me strong, you called me weak but your secrets I will keep
Bm                            G            A
You took for granted all the times I never let you down
Bm                              G                 A
You stumbled in and bumped your head, if not for me then you would be dead
Bm                           G             A
I picked you up and put you back on solid ground


Chorus: Lick 3
Bm                       G                A
If I go crazy then will you still call me Superman
Bm                          G              A
If I'm alive and well, will you be there holding my hand
Bm                            G       A     Bm      Bm       G A
I'll keep you by my side with my superhuman might Kryptonite


Guitar Solo: Lick 2       Bm G Asus4 x4


Bridge: *Caution Change of Chords* 	Bm Asus4 G x2
Bm                       A                G
If I go crazy then will you still call me Superman
Bm                          A              G
If I'm alive and well, will you be there holding my hand
Bm                            A       G     Bm      Bm          G   A
I'll keep you by my side with my superhuman might Kryptonite    Yeaaah


Chorus: Lick 3
Bm                       G                A
If I go crazy then will you still call me Superman
Bm                          G              A
If I'm alive and well, will you be there holding my hand
Bm                            G       A     Bm      Bm       G A
I'll keep you by my side with my superhuman might Kryptonite


Outro Guitar Solo: Lick 2        Bm G Asus4 x4
 
 Oh whoa whoa (X3)

Tap to rate this tab
# A B C D E F G H I J K L M N O P Q R S T U V W X Y Z