Guitaretab - guitar tabs
Song name
# A B C D E F G H I J K L M N O P Q R S T U V W X Y Z

3 Doors Down - Landing In London tab

-------------------------------------------------------------------------------
     LANDING IN LONDON - 3 Doors Down
-------------------------------------------------------------------------------
Tabbed by: gtrzmbie


I've seen this tab elsewhere, but it never seemed to be quite right; little things
like some notes being left out, especially in the verse and intro.



Guitar 1 (acoustic): EADGBE
Guitar 2 (electric): EADGBE


Gtr 1

  1   +   2   +   3   +   4   +   1   +   2   +   3   +   4   +   |

e|---------------------------------------------------------------->
B|--------1-------0-----------------------1-------0--------------->
G|------------------------2h4-0---------------------------2-2h4--->
D|------2---2---2---2---2---------------2---2---2---2---2--------->
A|----2-------2-------2---------------2-------2-------2----------->
E|0-------------------------------0------------------------------->

  1   +   2   +   3   +   4   +   |

e|--------------------------------|
B|------1-------0-----------------|
G|----------------------2h4-0-----|
D|----2---2---2---2---2-----------|
A|--2-------2-------2-------------|
E|0-------------------------------|

  1   +   2   +   3   +   4   +   1   +   2   +   3   +   4   +   |

e|--------------0-------------------------------------------------|
B|----------------------------------------0-----------------------|
G|--------0-----------------------------0---0---------------------|
D|------2---2-------------------------0-------0-------------------|
A|----2-------2-------------------------------------------2b3b2---|
E|0-------------0-----------------3-------------------------------|

  1   +   2   +   3   +   4   +   1   +   2   +   3   +   4   +   |

e|----------------------------------------------------------------|
B|--------0-------------------------------------------------------|
G|------2---2--------------------0--------0----------------------0|
D|----2-------2--------------0h2--------2---2----------------0h2--|
A|0-------------0-----0h2-------------2-------2------0h2----------|
E|--------------------------------0-------------0-----------------|

  1   +   2   +   3   +   4   +   1   +   2   +   3   +   4   +   |

e|----------------------------------------------------------------|
B|----------------------------------------0-----------------------|
G|--------0---------------0-------------0---0---------------------|
D|------2---2-----------2---2---------0-------0-------------------|
A|----2-------2-------2-------2---------------------------2b3b2---|
E|0-------------0-----------------3-------------------------------|

  1   +   2   +   3   +   4   +   1   +   2   +   3   +   4   +   |

e|----------------------------------------------------------------|
B|--------0-------------------------------------------------------|
G|------2---2--------------------0--------0----------------------0|
D|----2-------2--------------0h2--------2---2----------------0h2--|
A|0-------------0-----0h2-------------2-------2------0h2----------|
E|--------------------------------0-------------0-----------------|






  1   +   2   +   3   +   4   +   1   +   2   +   3   +   4   +   |

e|----------------------------------------------------------------|
B|----------------------------------------1-------0---------------|
G|--------0---------------0-------------0-----------------2-------|
D|------2---2---------------2---------2-----2---2---2---2---------|
A|----2-------2-------2-------2---3-----------3-------3-----------|
E|0-------------0---------------0---------------------------------|

  1   +   2   +   3   +   4   +   1   +   2   +   3   +   4   +   |

e|--------0-------2-------3---------------------------------------|
B|------3---3---3---3---3-----------------------------------------|
G|----2-------2-------2-------------------0----------------------0|
D|0-------------------------------------2---2----------------0h2--|
A|------------------------------------2-------2------0h2----------|
E|--------------------------------0-------------0-----------------|

Gtr 2

e|----------------------------2h3-----0---------------------------|
B|----------------------------------------------------------------|
G|----------------------------------------------------------------|
D|----------------------------------------------------------------|
A|----------------------------------------------------------------|
E|----------------------------------------------------------------|

Gtr 1

  1   +   2   +   3   +   4   +   1   +   2   +   3   +   4   +   |

e|----------------------------------------------------------------|
B|----------------------------------------1-------0---------------|
G|--------0---------------0-------------0-----------------2-------|
D|------2---2---------------2---------2-----2---2---2---2---------|
A|----2-------2-------2-------2---3-----------3-------3-----------|
E|0-------------0---------------0---------------------------------|

  1   +   2   +   3   +   4   +   1   +   2   +   3   +   4   +   |

e|--------0-------2-------3---------------------------------------|
B|------3---3---3---3---3-----------------------------------------|
G|----2-------2-------2-------------------0----------------------0|
D|0-------------------------------------2---2----------------0h2--|
A|------------------------------------2-------2------0h2----------|
E|--------------------------------0-------------0-----------------|

  1   +   2   +   3   +   4   +   1   +   2   +   3   +   4   +   |

e|----------------------------------------------------------------|
B|--------------------------------1-------1-----1(1)--1-----1(1)--|
G|--------0---------------0-------0-------0-----0(0)--0-----0(0)--|
D|------2---2---------------2-----2-------2-----2(2)--2-----2(2)--|
A|----2-------2-------2-------2---3-------3-----3(3)--3-----3(3)--|
E|0-------------0---------------0---------------------------------|

  1   +   2   +   3   +   4   +   1   +   2   +   3   +   4   +   |

e|----------------------------------------------------------------|
B|1-------1-----1(1)--1-----1(1)----------------------------------|
G|2-------2-----2(2)--2-----2(2)----------0----------------------0|
D|2-------2-----2(2)--2-----2(2)--------2---2----------------0h2--|
A|0-------0-----0(0)--0-----0(0)------2-------2------0h2----------|
E|--------------------------------0-------------0-----------------|

  1   +   2   +   3   +   4   +   1   +   2   +   3   +   4   +   |

e|----------------------------------------------------------------|
B|--------------------------------1-------1-----1(1)--1-----1(1)--|
G|--------0---------------0-------0-------0-----0(0)--0-----0(0)--|
D|------2---2---------------2-----2-------2-----2(2)--2-----2(2)--|
A|----2-------2-------2-------2---3-------3-----3(3)--3-----3(3)--|
E|0-------------0---------------0---------------------------------|

  1   +   2   +   3   +   4   +   |

e|2->-----------------------------|
B|3->-----------------------------|
G|2->-----------------------------|
D|0->-----------------------------|
A|--------------------------------|
E|--------------------------------|






  1   +   2   +   3   +   4   +   1   +   2   +   3   +   4   +   |

e|---------------------------------------------------------------->
B|--------1-------0-----------------------1-------0--------------->
G|------------------------2h4-0---------------------------2-2h4--->
D|------2---2---2---2---2---------------2---2---2---2---2--------->
A|----2-------2-------2---------------2-------2-------2----------->
E|0-------------------------------0------------------------------->

  1   +   2   +   3   +   4   +   |

e|--------------------------------|
B|------1-------0-----------------|
G|----------------------2h4-0-----|
D|----2---2---2---2---2-----------|
A|--2-------2-------2-------------|
E|0-------------------------------|

  1   +   2   +   3   +   4   +   1   +   2   +   3   +   4   +   |

e|--------------0-------------------------------------------------|
B|----------------------------------------0-----------------------|
G|--------0-----------------------------0---0---------------------|
D|------2---2-------------------------0-------0-------------------|
A|----2-------2-------------------------------------------2b3b2---|
E|0-------------0-----------------3-------------------------------|

  1   +   2   +   3   +   4   +   1   +   2   +   3   +   4   +   |

e|----------------------------------------------------------------|
B|--------0-------------------------------------------------------|
G|------2---2--------------------0--------0----------------------0|
D|----2-------2--------------0h2--------2---2----------------0h2--|
A|0-------------0-----0h2-------------2-------2------0h2----------|
E|--------------------------------0-------------0-----------------|

  1   +   2   +   3   +   4   +   1   +   2   +   3   +   4   +   |

e|----------------------------------------------------------------|
B|----------------------------------------0-----------------------|
G|--------0---------------0-------------0---0---------------------|
D|------2---2-----------2---2---------0-------0-------------------|
A|----2-------2-------2-------2---------------------------2b3b2---|
E|0-------------0-----------------3-------------------------------|

  1   +   2   +   3   +   4   +   1   +   2   +   3   +   4   +   |

e|----------------------------------------------------------------|
B|--------0-------------------------------------------------------|
G|------2---2--------------------0--------0----------------------0|
D|----2-------2--------------0h2--------2---2----------------0h2--|
A|0-------------0-----0h2-------------2-------2------0h2----------|
E|--------------------------------0-------------0-----------------|

  1   +   2   +   3   +   4   +   1   +   2   +   3   +   4   +   |

e|----------------------------------------------------------------|
B|--------------------------------1-------1-----1(1)--1-----1(1)--|
G|--------0---------------0-------0-------0-----0(0)--0-----0(0)--|
D|------2---2---------------2-----2-------2-----2(2)--2-----2(2)--|
A|----2-------2-------2-------2---3-------3-----3(3)--3-----3(3)--|
E|0-------------0---------------0---------------------------------|

  1   +   2   +   3   +   4   +   1   +   2   +   3   +   4   +   |

e|----------------------------------------------------------------|
B|1-------1-----1(1)--1-----1(1)----------------------------------|
G|2-------2-----2(2)--2-----2(2)--0-------0-----0(0)--0-----0(0)--|
D|2-------2-----2(2)--2-----2(2)--2-------2-----2(2)--2-----2(2)--|
A|0-------0-----0(0)--0-----0(0)--2-------2-----2(2)--2-----2(2)--|
E|--------------------------------0-------0-----0(0)--0-----0(0)--|

  1   +   2   +   3   +   4   +   1   +   2   +   3   +   4   +   |
[ Tab from: http://www.guitaretab.com/numeric/3-doors-down/56613.html ]
e|----------------------------------------------------------------|
B|--------------------------------1-------1-----1(1)--1-----1(1)--|
G|0-------0-----0(0)--0-----0(0)--0-------0-----0(0)--0-----0(0)--|
D|2-------2-----2(2)--2-----2(2)--2-------2-----2(2)--2-----2(2)--|
A|2-------2-----2(2)--2-----2(2)--3-------3-----3(3)--3-----3(3)--|
E|0-------0-----0(0)--0-----0(0)----------------------------------|

  1   +   2   +   3   +   4   +   1   +   2   +   3   +   4   +   |

e|2-------2-----2(2)--2-----2(2)----------------------------------|
B|3-------3-----3(3)--3-----3(3)----------------------------------|
G|2-------2-----2(2)--2-----2(2)--0-------0-----0(0)--0-----0(0)--|
D|0-------0-----0(0)--0-----0(0)--2-------2-----2(2)--2-----2(2)--|
A|--------------------------------2-------2-----2(2)--2-----2(2)--|
E|--------------------------------0-------0-----0(0)--0-----0(0)--|

  1   +   2   +   3   +   4   +   1   +   2   +   3   +   4   +   |

e|----------------------------------------------------------------|
B|--------------------------------1-------1-----1(1)--1-----1(1)--|
G|0-------0-----0(0)--0-----0(0)--0-------0-----0(0)--0-----0(0)--|
D|2-------2-----2(2)--2-----2(2)--2-------2-----2(2)--2-----2(2)--|
A|2-------2-----2(2)--2-----2(2)--3-------3-----3(3)--3-----3(3)--|
E|0-------0-----0(0)--0-----0(0)----------------------------------|

  1   +   2   +   3   +   4   +   1   +   2   +   3   +   4   +   |

e|----------------------------------------------------------------|
B|1-------1-----1(1)--1-----1(1)----------------------------------|
G|2-------2-----2(2)--2-----2(2)--0-------0-----0(0)--0-----0(0)--|
D|2-------2-----2(2)--2-----2(2)--2-------2-----2(2)--2-----2(2)--|
A|0-------0-----0(0)--0-----0(0)--2-------2-----2(2)--2-----2(2)--|
E|--------------------------------0-------0-----0(0)--0-----0(0)--|

  1   +   2   +   3   +   4   +   1   +   2   +   3   +   4   +   |

e|----------------------------------------------------------------|
B|--------------------------------1-------1-----1(1)--1-----1(1)--|
G|0-------0-----0(0)--0-----0(0)--0-------0-----0(0)--0-----0(0)--|
D|2-------2-----2(2)--2-----2(2)--2-------2-----2(2)--2-----2(2)--|
A|2-------2-----2(2)--2-----2(2)--3-------3-----3(3)--3-----3(3)--|
E|0-------0-----0(0)--0-----0(0)----------------------------------|

  1   +   2   +   3   +   4   +   1   +   2   +   3   +   4   +   |

e|2->-------------------------------------------------------------|
B|3->-------------------------------------------------------------|
G|2->-----------------------------0-------0-----0(0)--0-----0(0)--|
D|0->-----------------------------2-------2-----2(2)--2-----2(2)--|
A|--------------------------------2-------2-----2(2)--2-----2(2)--|
E|--------------------------------0-------0-----0(0)--0-----0(0)--|

  1   +   2   +   3   +   4   +   1   +   2   +   3   +   4   +   |

e|----------------------------------------------------------------|
B|--------------------------------1-------1-----1(1)--1-----1(1)--|
G|0-------0-----0(0)--0-----0(0)--0-------0-----0(0)--0-----0(0)--|
D|2-------2-----2(2)--2-----2(2)--2-------2-----2(2)--2-----2(2)--|
A|2-------2-----2(2)--2-----2(2)--3-------3-----3(3)--3-----3(3)--|
E|0-------0-----0(0)--0-----0(0)----------------------------------|

Gtr 2

e|----------------------------------------------------------------|
B|----------------------------------------------------------------|
G|----------------------------------------------------------------|
D|------------------------------------------7-9-------------------|
A|-----------------------SLIDE--------5-7-9-----------------------|
E|----------------------------------------------------------------|





  1   +   2   +   3   +   4   +   1   +   2   +   3   +   4   +   |

Gtr 1

e|----------------------------------------------------------------|
B|1-------1-----1(1)--1-----1(1)----------------------------------|
G|2-------2-----2(2)--2-----2(2)--0-------0-----0(0)--0-----0(0)--|
D|2-------2-----2(2)--2-----2(2)--2-------2-----2(2)--2-----2(2)--|
A|0-------0-----0(0)--0-----0(0)--2-------2-----2(2)--2-----2(2)--|
E|--------------------------------0-------0-----0(0)--0-----0(0)--|

Gtr 2
				  ~	  ~   ~    ~      ~   ~  
e|----------------------------------------------------------------|
B|--------7-8-8/10------10/12\----5-------5---5--5/7------7---7--7|
G|----7-9---------------------------------------------------------|
D|7-9-------------------------------------------------------------|
A|----------------------------------------------------------------|
E|----------------------------------------------------------------|





  1   +   2   +   3   +   4   +   1   +   2   +   3   +   4   +   |

Gtr 1

e|----------------------------------------------------------------|
B|--------------------------------1-------1-----1(1)--1-----1(1)--|
G|0-------0-----0(0)--0-----0(0)--0-------0-----0(0)--0-----0(0)--|
D|2-------2-----2(2)--2-----2(2)--2-------2-----2(2)--2-----2(2)--|
A|2-------2-----2(2)--2-----2(2)--3-------3-----3(3)--3-----3(3)--|
E|0-------0-----0(0)--0-----0(0)----------------------------------|

Gtr 2
   ~	  ~   ~    ~~        ~~
e|----------------------------------------------------------------|
B|/8------8---8--8/10-----10/12---12b---------10---------------10b|
G|----------------------------------------9-----------------------|
D|----------------------------------------------------------------|
A|----------------------------------------------------------------|
E|----------------------------------------------------------------|




  1   +   2   +   3   +   4   +   1   +   2   +   3   +   4   +   |

Gtr 1

e|----------------------------------------------------------------|
B|1-------1-----1(1)--1-----1(1)----------------------------------|
G|2-------2-----2(2)--2-----2(2)--0-------0-----0(0)--0-----0(0)--|
D|2-------2-----2(2)--2-----2(2)--2-------2-----2(2)--2-----2(2)--|
A|0-------0-----0(0)--0-----0(0)--2-------2-----2(2)--2-----2(2)--|
E|--------------------------------0-------0-----0(0)--0-----0(0)--|

Gtr 2
				  ~~	  ~~	  ~~	  ~~
e|--------------------------------12------12------12------12------|
B|12b10-------10----------10--12----------------------------------|
G|--------9-------------------------------------------------------|
D|----------------------------------------------------------------|
A|----------------------------------------------------------------|
E|----------------------------------------------------------------|




  1   +   2   +   3   +   4   +   1   +   2   +   3   +   4   +   |

Gtr 1

e|----------------------------------------------------------------|
B|--------------------------------1-------1-----1(1)--1-----1(1)--|
G|0-------0-----0(0)--0-----0(0)--0-------0-----0(0)--0-----0(0)--|
D|2-------2-----2(2)--2-----2(2)--2-------2-----2(2)--2-----2(2)--|
A|2-------2-----2(2)--2-----2(2)--3-------3-----3(3)--3-----3(3)--|
E|0-------0-----0(0)--0-----0(0)----------------------------------|

Gtr 2    (12)

e|12-10-8-10-8--7-8--7--5-3--2------------------------------------|
B|-----------------------------3--5-------------------------------|
G|----------------------------------------------------------------|
D|----------------------------------------------------------------|
A|----------------------------------------------------------------|
E|----------------------------------------------------------------|




  1   +   2   +   3   +   4   +   1   +   2   +   3   +   4   +   |

e|----------------------------------------------------------------|
B|1-------1-----1(1)--1-----1(1)----------------------------------|
G|2-------2-----2(2)--2-----2(2)--0-------0-----0(0)--0-----0(0)--|
D|2-------2-----2(2)--2-----2(2)--2-------2-----2(2)--2-----2(2)--|
A|0-------0-----0(0)--0-----0(0)--2-------2-----2(2)--2-----2(2)--|
E|--------------------------------0-------0-----0(0)--0-----0(0)--|

  1   +   2   +   3   +   4   +   1   +   2   +   3   +   4   +   |

e|----------------------------------------------------------------|
B|--------------------------------1-------1-----1(1)--1-----1(1)--|
G|0-------0-----0(0)--0-----0(0)--0-------0-----0(0)--0-----0(0)--|
D|2-------2-----2(2)--2-----2(2)--2-------2-----2(2)--2-----2(2)--|
A|2-------2-----2(2)--2-----2(2)--3-------3-----3(3)--3-----3(3)--|
E|0-------0-----0(0)--0-----0(0)----------------------------------|

  1   +   2   +   3   +   4   +   1   +   2   +   3   +   4   +   |

e|2-------2-----2(2)--2-----2(2)----------------------------------|
B|3-------3-----3(3)--3-----3(3)----------------------------------|
G|2-------2-----2(2)--2-----2(2)--0-------0-----0(0)--0-----0(0)--|
D|0-------0-----0(0)--0-----0(0)--2-------2-----2(2)--2-----2(2)--|
A|--------------------------------2-------2-----2(2)--2-----2(2)--|
E|--------------------------------0-------0-----0(0)--0-----0(0)--|

  1   +   2   +   3   +   4   +   1   +   2   +   3   +   4   +   |

e|----------------------------------------------------------------|
B|--------------------------------1-------1-----1(1)--1-----1(1)--|
G|0-------0-----0(0)--0-----0(0)--0-------0-----0(0)--0-----0(0)--|
D|2-------2-----2(2)--2-----2(2)--2-------2-----2(2)--2-----2(2)--|
A|2-------2-----2(2)--2-----2(2)--3-------3-----3(3)--3-----3(3)--|
E|0-------0-----0(0)--0-----0(0)----------------------------------|

  1   +   2   +   3   +   4   +   1   +   2   +   3   +   4   +   |

e|----------------------------------------------------------------|
B|--------------------------------1-------1-----1(1)--1-----1(1)--|
G|0-------0-----0(0)--0-----0(0)--0-------0-----0(0)--0-----0(0)--|
D|2-------2-----2(2)--2-----2(2)--2-------2-----2(2)--2-----2(2)--|
A|2-------2-----2(2)--2-----2(2)--3-------3-----3(3)--3-----3(3)--|
E|0-------0-----0(0)--0-----0(0)----------------------------------|

  1   +   2   +   3   +   4   +   1   +   2   +   3   +   4   +   |

e|2->-------------------------------------------------------------|
B|3->-------------------------------------------------------------|
G|2->-------------------------------------------------------------|
D|0->-------------------------------------------------------------|
A|----------------------------------------------------------------|
E|----------------------------------------------------------------|




  1   +   2   +   3   +   4   +   1   +   2   +   3   +   4   +   |

e|----------------------------------------------------------------|
B|--------1-------0-----------------------1-------0---------------|
G|------------------------2h4-0---------------------------2-2h4---|
D|------2---2---2---2---2---------------2---2---2---2---2---------|
A|----2-------2-------2---------------2-------2-------2-----------|
E|0-------------------------------0-------------------------------|

  1   +   2   +   3   +   4   +   1   +   2   +   3   +   4   +   |

e|----------------------------------------------0-----------------|
B|------1-------0-------------------------------0-----------------|
G|----------------------2h4-0-------------0-----0-----------------|
D|----2---2---2---2---2-----------------2---2---2-----------------|
A|--2-------2-------2-----------------2-------2-2-----------------|
E|0-------------------------------0-------------------------------|

				  Timing slows down here.


Related for Landing In London tab
×
Landing In London