Song name
# A B C D E F G H I J K L M N O P Q R S T U V W X Y Z

3 Doors Down - Right Where I Belong tab

+ --------------------------------------------------------------------- +
| Ultimate Guitar Tabs Archive - your #1 source for tabs!               |
| http://www.ultimate-guitar.com/                                       |
|                                                                       |
| Over 200,000 guitar, guitar pro and bass tabs! Also lessons, news,    |
| columns and guitar forums!                                            |
+ --------------------------------------------------------------------- +

Artist: 3 Doors Down
Song: Right Where I Belong


Tabbed by Jesse Odom
h=hammer on
p=pull off
br=bend & release
*=Pinch harmonic
/=Slide
pm ...=Palm Mute (only where the ... are)
~=Vibrato


riff 1
e-----------------------------------------------------------------------|
B-----------------------------------------------------------------------|
G-------------5-5--8/7------------5-5-----------------------------------|
D--5-5---7-7--5-5--8/7--5-5--7-7--5-5--5-5p3---3-5----------------------|
A--5-5---7-7--3-3--6/5--5-5--7-7--3-3--------5--------------------------|
E--3-3---5-5------------3-3--5-5----------------------------------------|

riff 2
e-----------------------------------------------------------------------|
B-----------------------------------------------------------------------|
G------------5-5--8/7---------------5-5-5-5-5-5-------------------------|
D--5-5--7-7--5-5--8/7----5-5---7-7--5-5-5-5-5-5-------------------------|
A--5-5--7-7--3-3--6/5----5-5---7-7--3-3-3-3-3-3-------------------------|
E--3-3--5-5--------------3-3---5-5--------------------------------------|

Enjoy!!
Tap to rate this tab
# A B C D E F G H I J K L M N O P Q R S T U V W X Y Z