Song name
# A B C D E F G H I J K L M N O P Q R S T U V W X Y Z

3 Doors Down - Ill Give You Anything tab

3 Doors Down
I'll Give You Anything
tabbed by shadowspec
Intro/Verse:

E|------------------|
G|----1---1-----1---|
B|--0---0-----0-----|
D|------------------|
A|----3-------------|
E|--3-------1-----3-|

that over and over again

Intro (part 2)/Chorus:

E|----------------------|
G|----------------------|
B|----------------------|
D|------------5---------|
A|--5-5-5-7-7-3-3-3-5-5-|
E|--3-3-3-5-5---1-1-3-3-|

Solo:

E|----------------------------------------------|
G|--------------------5-5-----------6---8---6---|
B|--4-4-4-5-4-4-----------7-5-4---5---5---5---5-|
D|--------------5-7-7-----------7---------------|
A|----------------------------------------------|
E|----------------------------------------------|

E|----------------------------------------7-8-10-12-10-8-7-5-|
G|-----------------------------------------------------------|
B|--5-----5-----5-----5-----5-----5-----5--------------------|
D|----7-5---7-5---7-5---7-5---7-5---7-5----------------------|
A|-----------------------------------------------------------|
E|-----------------------------------------------------------|
Tap to rate this tab
# A B C D E F G H I J K L M N O P Q R S T U V W X Y Z