Song name
# A B C D E F G H I J K L M N O P Q R S T U V W X Y Z

3 Doors Down - Sarah Yellin tab

Author/Artist: Three Doors Down
Title: Sarah Yellin
Album: Away From then Sun
i took this and fixed some errors awsome song easy to play

------------------------------------------------------------------------------|
------------------------------------------------------------------------------|
---------------5--4--2--------------------------------------------------------|
-2-4-2-4--2-4 -5--4--2--------------------------------------------------------|
-2-4-2-4--2-4 -3--2--0--------------------------------------------------------|
-0-2-0-2--0-2-----------------------------------------------------------------|
 Thats basically the intro riff..2nd guitar seems to have a wah effect

------------------------------------------------------------------------------|
------------------------------------------------------------------------------|
------------------------------------------------------------------------------|
------------------------------------------------------------------------------|
---------------3-3-3-3-2-2-2-0-2----------------------------------------------|
-2-2-2-2-2-2-2-------------------2--------------------------------------------|
 (PM)"she says ive got stuff to say"

------------------------------------------------------------------------------|
------------------------------------------------------------------------------|
-----------5--------5-------4----4--------------------------------------------|
--4-----4--5--------5-------4----4--------------------------------------------|
--4-----4--3--------3-------2----2--------------------------------------------|
--2-2-2-2---------------------------------------------------------------------|
  "mother, let them take my soul away"

------------------------------------------------------------------------------|
------------------------------------------------------------------------------|
-2----------------------------------------------------------------------------|
-2---2---4--------------------------------------------------------------------|
-0-0-2---4--------------------------------------------------------------------|
-----0-0-2-2-2-2-2------------------------------------------------------------|
  (chorus) "now its over"

------------------------------------------------------------------------------|
------------------------------------------------------------------------------|
--11--------------------------------------------------------------------------|
------10--9-------------------------------------------------------------------|
------------------------------------------------------------------------------|
------------------------------------------------------------------------------|
 this is played with wah before the 2nd verse. sounds good tremolo picked

------------------------------------------------------------------------------|
------------------------------------------------------------------------------|
------------------------------------------------------------------------------|
-4-4-4-4-4-4-4-4-4-4-4-4-4-4-4-4-4-4-4-4-4-4-4-4------------------------------|
-------------------------4-4-4-4-4-4-4-4-4-4-4-4------------------------------|
-2-2-2-2-2-2-2-2-2-2-2-2-2-2-2-2-2-2-2-2-2-2-2-2------------------------------|
 tremolo pick this with your wah on bass and gradually going to treble

------------------------------------------------------------------------------|
------------------------------------------------------------------------------|
-12-14-12--14-12-14-12-14-12---11-9-11-9--------------------------------------|
---/--\---/--\--/--\--/--\-------\-/--\---------------------------------------|
-10-12-10--12-10-12-10-12-10---9--7-9--7--------------------------------------|
------------------------------------------------------------------------------|
 after "theres a bullet in your head" repeat 3x and listen for timing
Tap to rate this tab
 
# A B C D E F G H I J K L M N O P Q R S T U V W X Y Z