Song name
# A B C D E F G H I J K L M N O P Q R S T U V W X Y Z

3 Doors Down - Running Out Of Days tab

3 Doors Down
Running out of Days
Transcribed By Ken Visger
drivex3@yahoo.com

/  slide up
\  slide down
h  hammer on
p  pull off
b  bend up
r  release
a.h.   artificial harmonic
p.h.   pinch harmonic
p.m.   palm mute
~   Vibrato


------------------|
------------------|
------------------|
-7-6~~~-----------|
----------7-5-----|~~\
------------------|

----0---------------0---------------0------------------------------|
----0--------3------0--------3~~----0-------3----------------------|
---------0h2---2~--------0h2------------0h2---2~-------------------|
-2---------------2---------------2--------------2-----7-6~~--------|
-2---------------2---------------2--------------2-----------7-5~~~-|
-0---------------0---------------0--------------0------------------|

  guitar 1  (full distortion)
|------------------------------------------------------------------|
|------------------------------------------------------------------|
|------------------------------------------------------------------|
|-2--------------2---------------2--------------2------------------|
|-2--------------2---------------2--------------2------------------|
|-0--------------0---------------0--------------0------------------|
| p.m.           p.m.            p.m.           p.m.
|
| guitar 2  (no dist.)
|------------------------------------------------------------------|
|------------------------------------------------------------------|
|-1--------------1-------1brbrbr-1---------------------------------|
|-2--------------2---2-----------2---------------------------------|
|-2--------------2-----2---------2---------------------------------|
|-0--------------0-0-------------0---------------------------------|

  guitar 1
|------------------------------------------------------------------|
|------------------------------------------------------------------|
|-2--------------2-------------------------------------------------|
|-2--------------2---------------2---------------2-----------------|
|-0--------------0---------------2---------------2-----------------|
|--------------------------------0---------------0-----------------|
| p.m.           p.m.            p.m.            p.m.
|
| guitar 2
|------------------------------------------------------------------|
|-2----------------------------------------------------------------|
|-2----------------------------------------------------------------|
|-2----------------------------------------------------------------|
|-0----------------------------------------------------------------|
|------------------------------------------------------------------|


-------------------------------------------------------------------|
-------------------------------------------------------------------|
-4---------------4-----------4-4-2---------------2-------------2-2-|
-4---------------4-----------4-4-2---------------2-------------2-2-|
-2---------------2-----------2-2-0---------------0-------------0-0-|
-------------------------------------------------------------------|


---0---------------0--------------|
---0---------3-----0---------3----|
---------0h2---2---------0h2------|
-2---------------2----------------|
-2---------------2----------------|
-0---------------0----------------|


---------------------------------------------------------------------|
---------------------------------------------------------------------|
-4---------------4-----------4-4-2-----------------------------------|
-4---------------4-----------4-4-2----------------------7-6~~--------|
-2---------------2-----------2-2-0---------------------------7-5~~~--|
---------------------------------------------------- ----------------|


----0---------------0---------------0-------------------------------|
----0--------3------0--------3~~----0--------3----------------------|
---------0h2---2~--------0h2-------------0h2---2~-------------------|
-2---------------2---------------2---------------2------7-6~~-------|
-2---------------2---------------2---------------2-----------7-5~~~-|
-0---------------0---------------0---------------0------------------|
Tap to rate this tab
# A B C D E F G H I J K L M N O P Q R S T U V W X Y Z