Guitaretab - guitar tabs
Song name
# A B C D E F G H I J K L M N O P Q R S T U V W X Y Z

3 Feet Smaller - Scared tab

Tabbed by: Moritz Fink

Tuning: EADGBE


Intro: 3x
|----------------------|
|----------------------|
|----------------------|
|----------------------|
|-6/7-4/6-2/4-1/2------|
|-----------------4-4--|


Verse: 2x
|------------------|------------------|------------------|------------------|
|------------------|------------------|------------------|------------------|
|------------------|------------------|------------------|------------------|
|------------------|------------------|------------------|------------------|
|-6666666666666666-|-2222222222222222-|-6666666666666666-|-2222222222222222-|
|-4444444444444444-|-0000000000000000-|-4444444444444444-|-0000000000000000-|


Lick: (played at the end of each verse)
|------------------|
|------------------|
|-----9--9/11\9\8--|
|-----x-x-xx-x-x--|
|-----7--7/-9\7\6--|
|------------------|
Pm    .


Pre-Chorus: 2x

Guitar 1
|----------------------------------|----------------------------------|
|----------------------------------|----------------------------------|
|-13131313151515151616161618181818-|----------------------------------|
|--x-x-x-x-x-x-x-x-x-x-x-x-x-x-x-x-|-2-2-2-2-2-2-2-2-4-4-4-4-4-4-4-4--|
|-11111111131313131414141416161616-|-2-2-2-2-2-2-2-2-4-4-4-4-4-4-4-4--|
|----------------------------------|-0-0-0-0-0-0-0-0-2-2-2-2-2-2-2-2--|

Guitar 2
|----------------------------------|----------------------------------|
|----------------------------------|----------------------------------|
|-13131313151515151616161618181818-|-9-9-9-9-9-9-9-9-1111111111111111-|
|--x-x-x-x-x-x-x-x-x-x-x-x-x-x-x-x-|-x-x-x-x-x-x-x-x-x-x-x-x-x-x-x-x--|
|-11111111131313131414141416161616-|-7-7-7-7-7-7-7-7-9-9-9-9-9-9-9-9--|
|----------------------------------|----------------------------------|

Chorus: 2x

Guitar 1
|------------------|------------------|------------------|------------------|
|------------------|------------------|------------------|------------------|
|-4-4-4-4-4-4-4-4--|------------------|------------------|------------------|
|-4-4-4-4-4-4-4-4--|-4-4-4-4-4-4-4-4--|-6-6-6-6-6-6-6-6--|-2-2-2-2-2-2-2-2--|
|-2-2-2-2-2-2-2-2--|-4-4-4-4-4-4-4-4--|-6-6-6-6-6-6-6-6--|-2-2-2-2-2-2-2-2--|
|------------------|-2-2-2-2-2-2-2-2--|-4-4-4-4-4-4-4-4--|-0-0-0-0-0-0-0-0--|

Guitar 2
|-----7777----7777-|------------------|------------------|------------------|
|------------------|-----7777----7777-|------------------|------------------|
|------------------|------------------|------------------|------------------|
|------------------|------------------|-----6666----6666-|-----4444----4444-|
|------------------|------------------|------------------|------------------|
|------------------|------------------|------------------|------------------|


Verse: 2x
|------------------|------------------|------------------|------------------|
|------------------|------------------|------------------|------------------|
|------------------|------------------|------------------|------------------|
|------------------|------------------|------------------|------------------|
|-6666666666666666-|-2222222222222222-|-6666666666666666-|-2222222222222222-|
|-4444444444444444-|-0000000000000000-|-4444444444444444-|-0000000000000000-|


Lick: (played at the end of each verse)
|------------------|
|------------------|
|-----9--9/11\9\8~-|
|-----x-x-xx-x-x--|
|-----7--7/-9\7\6~-|
|------------------|
Pm    .


Pre-Chorus: 2x
[ Tab from: http://www.guitaretab.com/numeric/3-feet-smaller/178369.html ]
Guitar 1
|----------------------------------|----------------------------------|
|----------------------------------|----------------------------------|
|-13131313151515151616161618181818-|----------------------------------|
|--x-x-x-x-x-x-x-x-x-x-x-x-x-x-x-x-|-2-2-2-2-2-2-2-2-4-4-4-4-4-4-4-4--|
|-11111111131313131414141416161616-|-2-2-2-2-2-2-2-2-4-4-4-4-4-4-4-4--|
|----------------------------------|-0-0-0-0-0-0-0-0-2-2-2-2-2-2-2-2--|

Guitar 2
|----------------------------------|----------------------------------|
|----------------------------------|----------------------------------|
|-13131313151515151616161618181818-|-9-9-9-9-9-9-9-9-1111111111111111-|
|--x-x-x-x-x-x-x-x-x-x-x-x-x-x-x-x-|-x-x-x-x-x-x-x-x-x-x-x-x-x-x-x-x--|
|-11111111131313131414141416161616-|-7-7-7-7-7-7-7-7-9-9-9-9-9-9-9-9--|
|----------------------------------|----------------------------------|


Chorus: 2x

Guitar 1
|------------------|------------------|------------------|------------------|
|------------------|------------------|------------------|------------------|
|-4-4-4-4-4-4-4-4--|------------------|------------------|------------------|
|-4-4-4-4-4-4-4-4--|-4-4-4-4-4-4-4-4--|-6-6-6-6-6-6-6-6--|-2-2-2-2-2-2-2-2--|
|-2-2-2-2-2-2-2-2--|-4-4-4-4-4-4-4-4--|-6-6-6-6-6-6-6-6--|-2-2-2-2-2-2-2-2--|
|------------------|-2-2-2-2-2-2-2-2--|-4-4-4-4-4-4-4-4--|-0-0-0-0-0-0-0-0--|

Guitar 2
|-----7777----7777-|------------------|------------------|------------------|
|------------------|-----7777----7777-|------------------|------------------|
|------------------|------------------|------------------|------------------|
|------------------|------------------|-----6666----6666-|-----4444----4444-|
|------------------|------------------|------------------|------------------|
|------------------|------------------|------------------|------------------|


Bridge: 12x
|----------------------|
|----------------------|
|----------------------|
|----------------------|
|-6/7-4/6-2/4-1/2------|
|-----------------4-4--|


Interlude:

Guitar 1 (8x)
|----------------------|
|----------------------|
|----------------------|
|----------------------|
|-6/7-4/6-2/4-1/2------|
|-----------------4-4--|

Guitar 2 (sets in at the second time)
		(1x)		  (6x)
|------------------||------------------|
|------------------||------------------|
|------------------||------------------|
|---66666666666666-||-6666666666666666-|
|---66666666666666-||-6666666666666666-|
|---44444444444444-||-4444444444444444-|


Pre-Chorus (Variation):
|----------------------------------|----------------------------------|
|----------------------------------|----------------------------------|
|-13131313151515151616161618181818-|-21212121212121212121212123232323-|
|--x-x-x-x-x-x-x-x-x-x-x-x-x-x-x-x-|--x-x-x-x-x-x-x-x-x-x-x-x-x-x-x-x-|
|-11111111131313131414141416161616-|-19191919191919191919191921212121-|
|----------------------------------|----------------------------------|


Chorus: 4x

Guitar 1
|------------------|------------------|------------------|------------------|
|------------------|------------------|------------------|------------------|
|-4-4-4-4-4-4-4-4--|------------------|------------------|------------------|
|-4-4-4-4-4-4-4-4--|-4-4-4-4-4-4-4-4--|-6-6-6-6-6-6-6-6--|-2-2-2-2-2-2-2-2--|
|-2-2-2-2-2-2-2-2--|-4-4-4-4-4-4-4-4--|-6-6-6-6-6-6-6-6--|-2-2-2-2-2-2-2-2--|
|------------------|-2-2-2-2-2-2-2-2--|-4-4-4-4-4-4-4-4--|-0-0-0-0-0-0-0-0--|

Guitar 2
|-----7777----7777-|------------------|------------------|------------------|
|------------------|-----7777----7777-|------------------|------------------|
|------------------|------------------|------------------|------------------|
|------------------|------------------|-----6666----6666-|-----4444----4444-|
|------------------|------------------|------------------|------------------|
|------------------|------------------|------------------|------------------|


Outro:
|----------------------|
|----------------------|
|----------------------|
|-----------------6-6--|
|-6/7-4/6-2/4-1/2-4-4--|
|-----------------4-4--|
Pm		 .


Enjoy playin' it!
Related for Scared tab