Guitaretab - guitar tabs
Song name
# A B C D E F G H I J K L M N O P Q R S T U V W X Y Z

3 Feet Smaller - Tonight Acoustic tab

Highlighted       Show chord diagrams
-----------------------------------------------------------------------------
			     Tonight - 3 Feet Smaller
-----------------------------------------------------------------------------
Tabbed by: madoxx
Email: chris_3617@gmx.net
Tuning: Half-Step Down

Chords used:
e|--3----3-----3----3-----3----------|
B|--3----3-----3----3-----3----------|
G|--0----2-----0----0-----2----------|
D|--0----0-----2----0-----0----------|
A|--2----------3----2-----0----------|
E|--2---------------3-----2----------|
    Em  Dsus  C2    G    D/F#

Intro:
e-----------------------------------------|
B------3~------3~--------3~------3-----3~-|
G----0-------2---------0-------0-----2----|
D--2-------0-----------------------0------|
A--------------------3--------------------|
E----------------------------3------------|

[play Intro]
Why is all fading while we sing
I'm almost alone
Cuz I won't let you go

Touch the perfect circle we call home
I'm almost alone
Cuz I won't let you go

e--------------------|
B-------3~------3~---|
G-----0-------2------|  x2 Catch my heart when it's about to fall
D-----------0--------|     Make me feel like I'm something special
A---3----------------|
E--------------------|


             Tonight
[play intro] Tonight
             Tonight
             Tonight

Em                               Dsus
The melodies are fading while we sing
           C2
I'm almost all alone
      G             D/F#
Cuz I won't let you go

Em                                    Dsus
I'll lay here by your side as long as you(as long as you)
C2
Want me to
   G           D/F#
So don't let me go
[ Tab from: http://www.guitaretab.com/numeric/3-feet-smaller/178826.html ]
C2                          Dsus
Take your hands and heal my broken soul
C2                    Dsus
Make me feel like I'm something special (something special)

  Em
Tonight
(Let's stop breathing)
  C2
Tonight
(I'm all alone now)
  G
Tonight
(I won't come down)
  D/F#
Tonight
(I'm all alone)

e--------------------|
B-------3~------3~---|
G-----0-------2------|  x2 Catch my life when it's about to fall
D-----------0--------|     Make me feel like I'm something special
A---3----------------|
E--------------------|

[Drum with your hand on your guitar]
Yesterday we cursed today
But tomorrow we're still the same
x2

Now play:
     Yesterday we cursed   today
E----x-----x------x----------x---------|
B----x-----x------x----------x---------|
G----9-----9------6----------9---------|
D----7-----9------7----------9---------|
A----0-----7------7----------7---------|
E----0-----0------5----------0---------|
    Asus2  E      A          E
But tomorrow we're still the same
E-----x----x--------------------x-------x---|
B-----x----x--------------------x-------x---|
G-----9----9--------------------6-------9---|
D-----7----9--------------------7-------9---|
A-----0----7--------------------7-------7---|
E-----0----0--------------------5-------0---|
     Asus2 E                    A       E

If you are a beginner you could also play the regular chords:
Asus2 002200, E 022100, A 002220, E 022100


play it til the end and then strum only Asus2 for that Staccato sound!

As an outro you could play the intro and end on G strum.

I know this is not the way Marcus Smaller plays it, but it is accurate and it's easier 
play than what I have seen so far.

Do not forget to rate + comment + add me. :)

Have fun!


I
Related for Tonight Acoustic tab
Advertisement will be closed in 10 seconds