Song name
# A B C D E F G H I J K L M N O P Q R S T U V W X Y Z

3 Feet Smaller - Let It Out tab

Artist: 3 Feet Smaller
Song: Let It Out
Album: 3rd Strike


.:Intro:.
e|---------------------------------------------------------------------------------|x2
H|---------------------------------------------------------------------------------|
G|---------------------------------------------------------------------------------|
D|---9--9---9--9--9--9---9--9------------------------------------------------------|
A|--7-77-7-7-77--------------------------------------------------------------------|
E|---------------9-99-7-7-77-------------------------------------------------------|


.:Verse:.
e|---------------------------------------------------------------------------------|x4
H|---------------------------------------------------------------------------------|
G|---------------------------------------------------------------------------------|
D|---9--9---9--9--9--9---9--9------------------------------------------------------|
A|--7-77-7-7-77--------------------------------------------------------------------|
E|---------------9-99-7-7-77-------------------------------------------------------|
                                 

.:Bridge:.
e|---------------------------------------------------------------------------------|x1
H|---------------------------------------------------------------------------------|
G|---------------------------------------------------------------------------------|
D|--77777777777777777-799999999----------------------------------------------------|
A|--77777777777777777-799999999----------------------------------------------------|
E|--55555555555555555-577777777----------------------------------------------------|
     ..............


.:Ref:.
e|---------------------------------------------------------------------------------|x2
H|---------------------------------------------------------------------------------|
G|---------------------------------------------------------------------------------|
D|--22222222222-66666666666-77777777777-99999999999--------------------------------|
A|--22222222222-66666666666-77777777777-99999999999--------------------------------|
E|--00000000000-44444444444-55555555555-77777777777--------------------------------|


.:Bridge 2:.
e|---------------------------------------------------------------------------------|
H|---------------------------------------------------------------------------------|
G|-------5-------4-----------------------------------------------------------------|
D|--222--5--222--4-----------------------------------------------------------------|
A|--222--3--222--2-----------------------------------------------------------------|
E|--000-----000--------------------------------------------------------------------|


Intro x2
Verse x4
Bridge x1
Ref x2
Bridge 2 x4


After Bridge 2 Let This Ring:

e|------|
H|------|
G|------|
D|--2~--|
A|--2~--|
E|--0~--|


.:Ref:.
e|---------------------------------------------------------------------------------|x4
H|---------------------------------------------------------------------------------|
G|---------------------------------------------------------------------------------|
D|--22222222222-66666666666-77777777777-99999999999--------------------------------|
A|--22222222222-66666666666-77777777777-99999999999--------------------------------|
E|--00000000000-44444444444-55555555555-77777777777--------------------------------|


.:Outthrow:.
e|---------------------------------------------------------------------------------|
H|---------------------------------------------------------------------------------|
G|-------5-------4-----------------------------------------------------------------|
D|--222--5--222--4--2~-------------------------------------------------------------|
A|--222--3--222--2--2~-------------------------------------------------------------|
E|--000-----000-----0~-------------------------------------------------------------|



.:Lyrics:.

This is my third breakdown this week
Want to tell you why, but I can't speak
Wanna stand up, but I'm too weak
Wanna run, can't move my feet
Not able to say what I please
Stopped my emotional release
Locked everything inside myself
But not saying a word won't solve my case
Don't act just like me

Sing, if you feel like singing
Scream, if you feel like screaming
Wail, if you feel like wailing
Just let it all out
Laugh, if you feel like laughing
Cry, if you feel like crying
Yell, if you feel like yelling
Just let it all out

I swallow all my problems now
Keep em inside, won't let em out
I know I will explode one day
You better not stand in my way (when this happens)
Not able to do what I please
Stopped my emotional release
Locked everything inside myself
But not doing anything won't solve my case
Don't act just like me

Sing, if you feel like singing
Scream, if you feel like screaming
Wail, if you feel like wailing
Just let it all out
Laugh, if you feel like laughing
Cry, if you feel like crying
Yell, if you feel like yelling
Just let it all out

Whatever's on your chest, shout it out
Be loud, so that everybody hears you when you speak, it all-out
The biggest mistake that you can make is not to say what's on your mind
Just shout it out and everything's fine
But some people won't always share your opinion
So if someone says the opposite of what you think, ignore him
Life is just about solving problems
To be at sixes and sevens with your friends
But who cares, shit happens

Sing, if you feel like singing
Scream, if you feel like screaming
Wail, if you feel like wailing
Just let it all out
Laugh, if you feel like laughing
Cry, if you feel like crying
Yell, if you feel like yelling
Just let it all out 
Tap to rate this tab
# A B C D E F G H I J K L M N O P Q R S T U V W X Y Z