Song name
# A B C D E F G H I J K L M N O P Q R S T U V W X Y Z

3 Feet Smaller - One Night Stand Acoustic tab

Ist das Intro aus diesem Video:

http://www.youtube.com/watch?v=XgDdFOMkRLE

e|-------------------------------------|
H|-------------------------------------|
G|-------7--7--7p5-----8--8--8--7--5--8|
D|------------------8------------------|
A|-------------------------------------|
E|-------------------------------------|



e|-------------------------------------|
H|-------------------------------------|
G|-------7--7--7p5-----5--5--5-----5--8|
D|------------------8-----------8------|
A|-------------------------------------|
E|-------------------------------------|

wiederholen
Tap to rate this tab
 
# A B C D E F G H I J K L M N O P Q R S T U V W X Y Z