Song name
# A B C D E F G H I J K L M N O P Q R S T U V W X Y Z

3 Feet Smaller - Angelstar tab

Highlighted       Show chord diagrams
Angelstar
3 feet smaller

intro

-3-----2------0----------------------------------------|
-------------------------------------------------------|
----------------------------3------3------3------3-----|
---------------------0---------------------------------|
---3-3----3-3----3-3------3----3-3----3-3----3-3----3--|
--3------3------3------2^3----3------3------3------3---|

Verse

-3-----2------0---------------------------------------|
------------------------------------------------------|
----------------------------3------3------3------3----|
---------------------0--------------------------------|
---3-3----3-3----3-3------3----3-3----3-3----3-3----3-|
--3------3------3------2^3----3------3------3------3--|

Corus

-3-----2------0-------------|
----------------------------|
----------------------------|
---------------------0------|
---3-3----3-3----3-3------3-|
--3------3------3------2^3--|

G   G/B		em
hey buddy how are you?
   D              C
i just thought of you
G   G/B     em
and all the things
  D          C
we wanted to do
G       G/B       em
but one day we'll catch
	 D   C
upon everything
G   		G/B         em
and till that i keep missing
   D     C
my best friend
     D
that i ever had


G      G/B        em       D      G
now i know how it feels to be all alone
G         G/B em       D          G
who holds my hand when everyone's gone?
G   G/B        em           D                G
i'm crying out loud when i walk through the rain
G G/B           em          D      G
i can't wait to see you in heaven again


my room's wall is papered with the pictures we've made
to make sure that my memory of you won't fade
your on dying i'll thought you're gone
the world still belongs to you and keeps movin on

Ref.: now i know how it feels to be all alone
who holds my hand when everyone's gone?
i'm crying out loud when i walk through the rain
i can't wait to see you in heaven again


em  D     C em     D    C
how could I forget your smile?
em         D       C
maybe from time to time
         em     D   C
you come by and say hi
    D           G
and never again goodbye ...goodbye

now i know how it feels to be all alone
who holds my hand when everyone's gone?
i'm crying out loud when i walk through the rain
i can't wait to see you in heaven again...again


Hi!!! i'm astrid, 15 from austria.....this is my first tab...... but i think it's quite ok.....=)....
from the best band ever ....
so..... have much fun with it =)

http://www.3feetsmaller.com
Tap to rate this tab
 
# A B C D E F G H I J K L M N O P Q R S T U V W X Y Z