Song name
# A B C D E F G H I J K L M N O P Q R S T U V W X Y Z

3 Inches Of Blood - Ride Dark Horse Ride tab

This is a litlle bit of the song.. and the coolest part really:P it's  from the
hammermetal: winter assault III cd and iot rocks... hope you've heard it
metal forever=p
|------------------------------|
|------------------------------|
|-9----------------------------|
|-9---9---9---9----------------|
|-7-7-7-7-7-7-7-10-9-7-9-5-----|
|------------------------------|
    .   .   .                  PM

|-------------------------------------|
|-------------------------------------|
|-5-----------------------------------|
|-5---5---5---5---5p3p0-5p3p0-5p3p0---|
|-3-3-3-3-3-3-3-----------------------|
|-------------------------------------|
     .  .    .                         PM
Tap to rate this tab
 
# A B C D E F G H I J K L M N O P Q R S T U V W X Y Z