Song name
# A B C D E F G H I J K L M N O P Q R S T U V W X Y Z

3 Inches Of Blood - Skeletal Onslaught tab

e|---------------------|
B|---------------------|
G|---------------------|
D|--3/5-5/7-77-7---77--|
A|--1/3-3/5-55-5-5-55--|
E|---------------------|
                 .     PM
                           
e|-------------------------|------------|
B|-------------------------|------------|
G|-------------------------|------------|
D|---3----3/5-5/7-77---77--|---3----3/5-|
A|-1-1-1--1/3-3/5-55-5-55--|-1-1-1--1/3-|
E|-------------------------|------------|
   .   .             .       .   .      PM

e|-----------------------------------------------------|
B|-----------------------------------------------------|
G|-----------------------------------------------------|
D|----7---8---7----5---3---5----7---8----7---5---3---5-|
A|-55---5---5---33---3---3---55---5---55---3---3---3---|
E|-----------------------------------------------------|
   ..   .   .   ..   .   .   ..   .   ..   .   .   .   PM
Tap to rate this tab
# A B C D E F G H I J K L M N O P Q R S T U V W X Y Z