Song name
# A B C D E F G H I J K L M N O P Q R S T U V W X Y Z

3 Inches Of Blood - Axes Of Evil tab

Normal Tuning

Intro: (2time)
Guit 1
----------------------------------------------------------|
----------------------------------------------------------|
----------------------------------------------------------|
---------7--10-9-7----7-9-------------7-9-10----7-9-------|
-----7-7-----------10-----5----7-7-10--------10-----5-----|
--0--------------------------0----------------------------|
Guitar 2:
-----------------------------------------------------------|
-----------------------------------------------------------|
---------9--12-11-9----9-11-------------9-11-12--9-11------|
-----9-9--------------------7----9-9-12--------12----7--12-|
-----------------------------------------------------------|
--7----------------------------7---------------------------|
Tap to rate this tab
# A B C D E F G H I J K L M N O P Q R S T U V W X Y Z