Guitaretab - guitar tabs
Song name
# A B C D E F G H I J K L M N O P Q R S T U V W X Y Z

3 Inches Of Blood - Goatriders Horde tab

-------------------------------------------------------------------------------
			     SONG NAME - Band Name
-------------------------------------------------------------------------------
Tabbed by: Chrisofbodom
Email: heavy_metal_monkey@hotmail.com
I looked for this tab everyday to see if someone posted it until I got annoyed and did 
I could of it myself.
| /  slide up
| \  slide down
| h  hammer-on
| p  pull-off
| ~  vibrato
| +  harmonic
| .  Mute note
Tuning: Standard
       Pick Fast for this!
e|--------------------------------------------------------------------------|
B|--------------------------------------------------------------------------|
G|--------------------------------------------------------------------------|
D|--9--------------------------5h7----9-------------------9--------121213---|
A|--7--------5h7--------5h7-----------7--------5h7--------7--------101011---|
E|----000000-----000000-----00-----00---000000-----000000---000000----------|
      ......     ......     ..     ..   ......     ......   ......
              I messed up somewhere along the line after the main riffs in the begining 
but they sound accurate enough
e|--------------------------------------------------------------------------|
B|--------------------------------------------------------------------------|
G|--------------------------7/9-7-------------------------------------------|
D|-----5-5-5-5/9-5h7-5---12-5/7-5-7-9-5---5-5-5-5/9-9h10-9----9-------------|
A|-2-5-3-2-3-3/7-------9-10-------5-7-3-5-3-2-3-3/7--------12---12-10-------|
E|-0-3----------------------------------3-----------------------------------|
         . .         . .                    . .          .  . .  . .
[ Tab from: http://www.guitaretab.com/numeric/3-inches-of-blood/95014.html ]
Related for Goatriders Horde tab
Goatriders Horde chords by 3 Inches Of Blood