Guitaretab - guitar tabs
Song name
# A B C D E F G H I J K L M N O P Q R S T U V W X Y Z

3 Inches Of Blood - Through The Horned Gate tab

band;3 INCHES OF BLOOD
SONG:THROUGH THE HORNED GATES
ALBUM:FIRE UP THE BLADES

TABBED BY: DEATHPIDGEON
[ Tab from: http://www.guitaretab.com/numeric/3-inches-of-blood/97888.html ]
STANDARD TUNING(I TUNED TO "COLD WHITE SILENCE")
#=ARTIFICIAL HARMONICS
SLOWLY FADE IN, PLAY SEVEN TIMES.
ON THE LAST TIME, PLAY LAST 3 NOTES OF EACH GUITAR PART AS POWER CHORDS
  G.1
e|----PM...----PM.........---------PM...----PM...----------------------------|
B|---------------------------------------------------------------------------|
G|---------------------------------------------------------------------------|
D|-13-------13------------------13-------------------------------------------|
A|----14-11----14-11-14-13-11------14-11-13-------/14------------------------|
E|------------------------------------------14-11-----14---------------------|
 |G.2
e|----PM..-----PM.........---------PM..-----PM..-----------------------------|
B|---------------------------------------------------------------------------|
G|---------------------------------------------------------------------------|
D|---------------------------------------------------------------------------|
A|------------------------------------------------/9-------------------------|
E|-11-9--7--11-9--7--11-9-7H9---11-9--7--11-9--7------7----------------------|

  g.1
e|----PM...----PM...------------PM--------PM...-#--PM.........---------------|
B|---------------------------------------------------------------------------|
G|---------------------------------------------------------------------------|
D|-13-------13-------11h12-11\----11---13------------------------------------|
A|----14-11----14-11------------9---------14-11-13-------14-13-11------------|
E|-------------------------------------------------14-11---------------------|
 |g.2
e|----PM..-----PM..--------------------------PM----PM........----------------|
B|---------------------------------------------------------------------------|
G|---------------------------------------------------------------------------|
D|--------------------------------4----2--1-----1----------------------------|
A|-------------------------------------------2-----4-----2--1----------------|
E|-11-9--7--11-9--7--9h10--9\---2---------------------4--------4-------------|

i TABBED THIS THING ON AN ACOUSTIC,HOPE YOU LIKE IT.
Related for Through The Horned Gate tab
Through The Horned Gate chords by 3 Inches Of Blood