Song name
# A B C D E F G H I J K L M N O P Q R S T U V W X Y Z

3 Out Of 5 - City Of Sin tab

Band: 3 Out Of 5
Song: City of Sin
Album: The Horoscopic Revelations...
Transcribed by: Mike Alliss
Email: Snowblind57@hotmail.com

Drop D

verse
e-------------------------------------------------
b-------------------------------------------------
g----77----77----55----55----44----44----22----22-
d----77----77----55----55----44----44----22----22-
a----55----55----33----33----22----22----00----00-
d-xx----xx----xx----xx----xx----xx----xx----xx----
                                                                              
chorus
e---------------------
b---------------------
g---------------------
d-0000-3333-6666-5555-
a-0000-3333-6666-5555-
d-0000-3333-6666-5555-
    m  u  t  e  d                                                             

solo
e-----------------------------------------------------------------
b-----------------------------------------------------------------
g-----------------------------------------------------------------
d-7---7---7---7---5---5---5---5---4---4---4---4---2---2---2---2---
a---5---5---5---5---3---3---3---3---2---2---2---2---0---0---0---0-
d-----------------------------------------------------------------

solo continued...
e---------------------------------------------------------------------
b---------------------------------------------------------------------
g---------------------------------------------------------------------
d-7---7---7---7---10---10---10---10---5---5---5---5---7---7---7---7---
a---5---5---5---5---8----8----8----8----3---3---3---3---5---5---5---5-
d---------------------------------------------------------------------
Tap to rate this tab
# A B C D E F G H I J K L M N O P Q R S T U V W X Y Z