Song name
# A B C D E F G H I J K L M N O P Q R S T U V W X Y Z

3 Out Of 5 - Mother Metal tab

Band: 3 Out Of 5
Song: Mother (metal version)
Transcribed by: Mike Alliss
Email: Snowblind57@hotmail.com

Drop D
* - tenth fret

verse riff 1
e------------------
b------------------
g------------------
d-----7---9-7---7--
a---7---7-----7----
d-7----------------
                                                                              
verse riff 2
e-----------------
b-----------------
g-----------------
d-----2---4-2---2-
a---2---2-----2---
d-2---------------
                                                                              
verse riff 3
e-------------------------
b-------------------------
g-------------------------
d-------10----12-10----10-
a----10----10-------10----
d-10----------------------
                                                                              
verse riff 4
e-----------------
b-----------------
g-----------------
d-----5---7-5---5-
a---5---5-----5---
d-5---------------
                                                                              
chorus
e------------------------------------------------------------
b------------------------------------------------------------
g------------------------------------------------------------
d-7-777-7-77777--2-222-2-22222--*-***-*-*****--5-555-5-55555-
a-7-777-7-77777--2-222-2-22222--*-***-*-*****--5-555-5-55555-
d-7-777-7-77777--2-222-2-22222--*-***-*-*****--5-555-5-55555-
Tap to rate this tab
# A B C D E F G H I J K L M N O P Q R S T U V W X Y Z