Song name
# A B C D E F G H I J K L M N O P Q R S T U V W X Y Z

3 - Bramfatura tab

www.thefamily3.com
This is a real band! The name of the band is simply the number 3.

3 
Bramfatura 
Tabbed by Steinface @ theband3 
Tuning EBEGBE 

T-tap with thumb 
F-play with finger 
h- hammer on 
p- pull off 
(_)- harmonic 
/- slide 


NOTE: MUST be rythmically inclined! This song invloves tapping the thumb at regular intervals 
in 3/4 time. That means: TAP. 2. 3. TAP. 2. 3. TAP. 2. 3. everything else is done with fingers. 
I didn't tab out the WHOLE song, just the main parts, cus if you can get this stuff down, 
you pretty much have the jist of the song. Enjoy if you can 



Intro/Outro 

  T       F  T   F  T   F  T   F  T   F  T   F  T   F  T   F  T 
e|7h8p7p0-0------0------0--0h7-7--7p0-0--------------------0--------| 
B|-----------0h8----0h7----------------------0------0---------7-----| 
G|---------------------------------------0h7----0h8----0h9----------| 
E|------------------------------------------------------------------| 
B|------------------------------------------------------------------| 
E|------------------------------------------------------------------| 
                                                                    | 
  T       F  T   F  T   F  T   F  T   F  T   F  T   F  T   T   F    | 
e|7h8p7p0-0------0------0--0h7-7--7p0-0------0------0----------(5)--| 
B|-----------0h8----0h7--------------------------------7/8-----(5)--| 
G|---------------------------------------0h8----0h9------------(5)--| 
E|-------------------------------------------------------------(5)--| 
B|-------------------------------------------------------------(5)--| 
E|----------------------------------------------------------0--(5)--| 



Craziness 1 
    F  T  F T  F T  F T  F   F T   F T   F  T   F T  
e|-------------------------------------------------------------| 
B|-------------------------------------------------------------| 
G|--------0----0-----------------------------------------------| 
E|--0------0h5------0----0---------0------------0--------------| 
B|-----0h5-------0h5--0h5----0-0h7-------0--0h7---0h7/8--------| 
E|0----------------------------------0h7-----------------------| 

  F T   F T   F T   F T   F  T  F T   F  F T   F T   F  T    F T    F F T 
e|------------------------------------------------------------------------| 
B|------------------------------------------------------------------------| 
G|------------------------------0-----------------------------------------| 
E|------0-----0-----0-----0-----------0--------0--------------------0-----| 
B|0-0h5---0h8---0h3---0h8----0h8--0h8----0-0h7-------0-------0--0h5---0---| 
E|------------------------------------------------0h7---7/10------------0-| 



Craziness 2 
  T  F T  F T   F T  F T  F T  F 
e|------------------------0--------------| 
B|--------------0----0---------0---------| 
G|---------------------------------------| 
E|--------0------------------------------| 
B|---0-----------------------------------| 
E|0h5--0h5--0h5---0h5--0h5--0h5----------| 
                                         | 
e|------------------------0--------------| 
B|--------------0----0---------0---------| 
G|---------------------------------------| 
E|--------0------------------------------| 
B|---0-----------------------------------| 
E|0h3--0h3--0h3---0h3--0h3--0h3----------| 
                                         | 
e|------------------------0--------------| 
B|--------------0----0---------0---------| 
G|---------------------------------------| 
E|--------0------------------------------| 
B|---0-----------------------------------| 
E|0h2--0h2--0h2---0h2--0h2--0h2----------| 
                                         | 
e|------------------------0--------------| 
B|--------------0----0---------0---------| 
G|---------------------------------------| 
E|--------0------------------------------| 
B|---0-----------------------------------| 
E|0h3--0h3--0h3---0h3--0h3--0h3----------| 
                                         | 
e|------------------------0---------3....| 
B|--------------0----0---------0----3....| 
G|----------------------------------4....| 
E|--------0-------------------------3....| 
B|---0------------------------------3....| 
E|0h5--0h5--0h5---0h5--0h5--0h5-----3....| 



Vinegar Hill part 

e|---------------------------------------------------------------------------------------| 
B|---------------------------------------------------------------------------------------| 
G|---------------------------------------------------------------------------------------| 
E|--0t0h7p0-t0h7p0-t0h8p0-t0h5-----------------------------------------------------------| 
B|-----------------------------------0t0h10p0-t0h7p0-t0h10p0-t0h8p0----------------------| 
E|t0-------------------------------t0----------------------------------------------------| 
                                                                                         | 
e|---------------------------------------------------------------------------------------| 
B|---------------------------------------------------------------------------------------| 
G|---------------------------------------------------------------------------------------| 
E|-----------------------------------t0h8p0-t0h7p0---------------------------------------| 
B|---0t0h8p0-t0h8p0-t0h10p0-t0h7-------------------t0h10p0-t0h8p0-t0h7p0-t0h8p0-t0h7p0---| 
E|t0------------------------------t0-----------------------------------------------------| 
                                     *************************************************** 



End 

e|(5)--------------------------------------| 
B|(5)--------------------------------------| 
G|(5)--------------------------------------| 
E|(5)--------------------------------------| 
B|(5)--------------------------------------| 
E|(5)--------------------------------------| 
Tap to rate this tab
# A B C D E F G H I J K L M N O P Q R S T U V W X Y Z